Oops, an error
Loading. Please wait.

Chac Tu Chac tab

46 views 1 this week
no commentswrite comment
1 2 3 4 5
3 more votes to show rating
add to favorites
×
Save as Personal and add changes to this tab that will be seen only by you. Learn more ›
×
You can save this tab as Personal to edit and correct it or add notes. All changes will be seen only by you. Learn more »
launch autoscroll
font size
0
reset
how to read this tab
guitar tuner
edit
Autoscroll
slow
fast
+/-
esc
set tempo
stop
INTRO:

RIFF1:

|--------------------------------|
|---1---1---1---1---1---1---1---1|
|-2---2---2---2---2---2---2---1--|   REPITE VARIAS VECES
|--------------------------------|
|--------------------------------|
|--------------------------------|


RIFF2:
|----------------------------------------
|---1---1---1---1---1---1---1---1------1-
|-2---2---2---2---2---2---2---1--0-1-2---
|----------------------------------------
|----------------------------------------
|----------------------------------------

sobreRIFF1

Si vos queres estar libre
si queres alto volar
no dejes que te den el tiro
cuando empezas a aletear

sobreRIFF1

Si vos queres estar libre
cuidate de mendigar
que haya un hachazo en tu hojo
pero una flor en tu hojal

Sino..

A
Chac tu Chac!
     G
Tu Chac chac
A
Chac tu Chac!
    G
Tu Chac chac
A
Chac tu Chac!
   G
Tu Chac..


INTRO


sobreRIFF2:

Si vos queres estar libre
tomas cualquier elixir
ella se hace invisible
ella se hace sentir

Sobre RIFF1:

El rey es rey porque baila
..pero se puede caer
bailara sobre la cascara de banana
cuando se ponga de pie


G
Chac tu Chac!
G
Tu Chac chac
G
Chac tu Chac!
Dsus4
Tu Chac chac
Dsus4
Chac tu Chac!
Dsus4
Tu Chac..


sobreRIFF1

   Si vos queres estar libre
si queres alto volar
no dejes que te den el tiro
cuando empezas a aletear

sobre RIFF1:

El rey es rey porque baila
..pero se puede caer
bailara sobre la cascara de banana
cuando se ponga de pie

                  x3
|-------------------|-------0--3/5--5-3-0--------------|
|--3-1--3-1---3-2-1-|---1-3---------------1-3-1--1-3---|
|------2----2-------|-2------------------------------5-|
|-------------------|---------------------------2------|
|-------------------|----------------------------------|
|-------------------|----------------------------------|

A
Chac tu Chac!
   G
Tu Chac chac
A
Chac tu Chac!
   G
Tu Chac chac
A
Chac tu Chac!
   G
Tu Chac.. x2

FIN (A)

            
            
Suggest correction
Creating personal tab
Creating personal tab
You can edit any tab online and save it as your Personal.

You can edit, replace or remove any tab part or add personal notes – all changes will be seen only by you.

Personal tabs can be accessed anytime from any device, even offline.
Learn more »
Give kudos to tab author, rate the tab!
1 2 3 4 5
comments
print report bad tab
guest
Wanna post a correction for this tab? Suggest correction