Oops, an error
Loading. Please wait.

Luz De Marfil tab

version 2
version 2

Whole song

63 views 1 this week
no commentswrite comment
1 2 3 4 5
3 more votes to show rating
add to favorites
×
Save as Personal and add changes to this tab that will be seen only by you. Learn more ›
×
You can save this tab as Personal to edit and correct it or add notes. All changes will be seen only by you. Learn more »
launch autoscroll
font size
0
reset
how to read this tab
guitar tuner
edit
Autoscroll
slow
fast
+/-
esc
set tempo
stop
Intro:

e|-------2----------|---0-3-2--0-------|-2---------|
b|----------3h4p3--1|-3----------3-----|----3------|
g|-----2------------|---------------2-2|-------2-2-|
d|(0)---------------|------------------|-----------|
a|------------------|------------------|-----------|
E|------------------|------------------|-----------|

e|-------2----------|---0-3-2--0-------|-2---------|----||
b|----------3h4p3--1|-3----------3-----|----3------|----||
g|-----2------------|---------------2-2|-------2-2-|-0--||
d|(0)---------------|------------------|-----------|---4||
a|------------------|------------------|-----------|----||
E|------------------|------------------|-----------|----||


Arpegio:

         E                 Bm
e|------------------|-------------------|
b|-----9-----9----9-|------7------7----7|
g|--9----9-9---9-9--|--7-----7--7--7--7-|
d|--9------9--------|--7--------7-------|
a|-(7)----(7)-------|-(9)------(9)------|
E|------------------|-------------------|

       D                     F
e|------------------|---------------------|
b|-----7-----7-----7|-----10-----10-----10|
g|--7----7-----7-7--|--10---10-----10-10--|
d|--7------7--------|--10------10---------|
a|-(5)------(7)-----|-(8)------(8)--------|
E|------------------|---------------------|

Estrofa 1:
(Como arpegio)
E          Bm
Luz de marfil
D              F
de marfil superdelgado
E        Bm
te partirás
D              F
cuando todo haya acabado

(Entra bajo)

Bajo:

   E     Bm   D    F     E   Bm   D     F
g|----|----|----|----|-----|-----|----|---|
d|----|----|--0-|----|-----|-----|-0--|-#-|
a|----|--2-|----|-3--|-----|2-2-2|----|---|
E|-0--|----|----|1--1|--0--|-----|----|---|

E        Bm
Hoy sostenés
D             F
esa luz en la mirada
E         Bm
Luz de Marfil

Viene:
(Un rasguido c/u)
     D       F     E7sus4
e|---5---|---8---|---0---||
b|---7---|---10--|---0---||
g|---7---|---10--|---2---||
d|---7---|---10--|---0---||
a|---5---|---8---|---2---||
E|-------|-------|---0---||

D          F         E7sus4
Todo lo demas no es nada


Puente:

En realidad es E y F. Lo que genera ese efecto es el bajo,
fijense bien:

Guitarra 1:
e|-0--0-0-0-0-0--|-1--1-1-1-1-1--|--|
b|-0--0-0-0-0-0--|-1--1-1-1-1-1--|--|
g|-1--1-1-1-1-1--|-2--2-2-2-2-2--|--|
d|-2--2-2-2-2-2--|-3--3-3-3-3-3--|x2|
a|-2--2-2-2-2-2--|-3--3-3-3-3-3--|--|
E|-0--0-0-0-0-0--|-1--1-1-1-1-1--|--|
Guitarra 2:
e|---------------|---------------|--|
b|---------------|---------------|--|
g|---------------|---------------|--|
d|-----6------6--|-----7------9-8|x2|
a|-7-7------7---7|-8-8-----8-----|--|
E|---------------|---------------|--|
Bajo:
g|-------1----1--|------2-----2--|--|
d|-2--2-----2---2|-3--3-----3---3|--|
a|---------------|---------------|x2|
E|---------------|---------------|--|

Fijense que la guitarra 1 está un toque mas arriba que todas
las demas,


Estrofa 2:

Guitarra 1:
     E              Bm              D              F
e|------------|-----10---9---|--------------|--------------|--|
b|-9--x--9--x-|-7-----12--12-|--7--x--7--x-|----10-----9--|--|
g|-9--x--9--x-|-7------------|--7--x--7--x-|--------------|--|
d|-9--x--9--x-|-9------------|--7--x--7--x-|-10---10-9---9|x4|
a|------------|--------------|--------------|--------------|--|
E|------------|--------------|--------------|--------------|--|


Guitarra 2:
       E           Bm               D             F
e|------------|--------------|--------------|--------------|--|
b|------------|--------------|--------------|--------------|--|
g|-9-9-9-9-9-9|--------------|--------------|--------------|--|
d|-9-9-9-9-9-9|-9-9-9-9-9-9-9|-7-7-7-7-7-7-7|-3-3-3-3-3-3-3|x4|
a|-7-7-7-7-7-7|-9-9-9-9-9-9-9|-5-5-5-5-5-5-5|-3-3-3-3-3-3-3|--|
E|------------|-7-7-7-7-7-7-7|--------------|-1-1-1-1-1-1-1|--|
PM..........................................................

Bajo:
g|------------|--------------|--------------|--------------|--|
d|------------|--------------|-------7------|--------------|--|
a|------------|--------2h4--2|--5-----------|5-7-9-10-9-7-5|x4|
E|-0--0--0-1--|--2---2-------|--------------|--------------|--|

E         Bm
Cambia la piel
D          F
Y la deja, en el espejo
E        Bm
Debe seguir
D          F
Dandole duro y parejo
E           Bm
No va a cambiar, no
D              F
Aunque el bobo se lo pida
E          Bm
Luz de marfil
D               F
Ya se trepan, las hormigas..

   E7sus4
e|---0---||
b|---0---||
g|---2---||
d|---0---||
a|---2---||
e|---0---||

Estribillo:

Guitarras:
       E           A               D             A
e|------------|------------|------------|------------|--||
b|------------|------------|------------|------------|--||
g|------------|------------|-2-2-4-2-2-4|------------|--||
d|------------|-2-2-4-2-2-4|-0-0-0-0-0-0|-2-2-4-2-2-4|x4||
a|-2-2-4-2-2-4|-0-0-0-0-0-0|------------|-0-0-0-0-0-0|--||
E|-0-0-0-0-0-0|------------|------------|------------|--||
Bajo: (Tonica)
g|------------|------------|------------|------------|--||
d|------------|------------|-0-0-0-0-0-0|------------|x4||
a|------------|-0-0-0-0-0-0|------------|-0-0-0-0-0-0|--||
E|-0-0-0-0-0-0|------------|------------|------------|--||

E                   A
Las montañas pueden acercarse,
  D             A
cuando el día, se deshace
E                    A
ví tus ojos con el fuego enfrente,
 D                  A
barcos sin tiempo, por la corriente
E                    A
cuida siempre esa luz de marfil,
  D                         A
que te acompañe hasta las puertas del fin
E              A
y buena suerte, de verdad,
  D                     A
que tengas todo lo que no te supe dar.


Puente:

Guitarra 1:
e|-0--0-0-0-0-0--|-1--1-1-1-1-1--|--|
b|-0--0-0-0-0-0--|-1--1-1-1-1-1--|--|
g|-1--1-1-1-1-1--|-2--2-2-2-2-2--|--|
d|-2--2-2-2-2-2--|-3--3-3-3-3-3--|x2|
a|-2--2-2-2-2-2--|-3--3-3-3-3-3--|--|
E|-0--0-0-0-0-0--|-1--1-1-1-1-1--|--|
Guitarra 2:
e|---------------|---------------|--|
b|---------------|---------------|--|
g|---------------|---------------|--|
d|-----6------6--|-----7------9-8|--|
a|-7-7------7---7|-8-8-----8-----|x2|
E|---------------|---------------|--|
Bajo:
g|-------1----1--|------2-----2--|--|
d|-2--2-----2---2|-3--3-----3---3|x2|
a|---------------|---------------|--|
E|---------------|---------------|--|


Estrofa 3:
(Igual que las otras)
E          Bm
Luz de marfil
D            F
de marfil super delgado
E        Bm
te partirás
D               F
cuando todo haya acabado
E          Bm
hoy sostenés
D         F
esa luz en la mirada
E          Bm
luz de marfil
D           F             E7sus4
todo lo demás no es nada.


Estribillo:
(Igual que el otro)
E                   A
Las montañas pueden acercarse,
  D             A
cuando el día, se deshace
E                    A
ví tus ojos con el fuego enfrente,
 D                  A
barcos sin tiempo, por la corriente
E                    A
cuida siempre esa luz de marfil,
  D                         A
que te acompañe hasta las puertas del fin
E              A
y buena suerte, de verdad,
  D                     A
que tengas todo lo que no te supe dar.


Final:
(Rasgueado)

E              Bm
Aaaaay! Donde va y donde va
         D            F
y donde va mi luz, y va, mi luz (x4)


Fin con puente.

-----

Bueno, arreglé el arpegio que estaba mal transcripto,
faltaba una cuerda, que boludo que soy, perdonen y califiquen
ahora como les parezca

Saludos

            
            
Suggest correction
Creating personal tab
Creating personal tab
You can edit any tab online and save it as your Personal.

You can edit, replace or remove any tab part or add personal notes – all changes will be seen only by you.

Personal tabs can be accessed anytime from any device, even offline.
Learn more »
Give kudos to tab author, rate the tab!
1 2 3 4 5
comments
print report bad tab
guest
Wanna post a correction for this tab? Suggest correction