Oops, an error
Loading. Please wait.

Que Decis tab

49 views 1 this week
no commentswrite comment
1 2 3 4 5
3 more votes to show rating
add to favorites
×
Save as Personal and add changes to this tab that will be seen only by you. Learn more ›
×
You can save this tab as Personal to edit and correct it or add notes. All changes will be seen only by you. Learn more »
launch autoscroll
font size
0
reset
how to read this tab
guitar tuner
edit
Autoscroll
slow
fast
+/-
esc
set tempo
stop
bue aca les parte de un temazo de los piojos... de las notas
no estoy muy seguro pero creo esto suena bien..


1>--------------------------------------------------------
2>--------------------------------------------------------
3>--------------------------------------------------------
4>-----5---3-5--------5---3-5-----------------------------
5>-------5-----1/3--3---5---------------------------------
6>--3-----------------------------------------------------

... cuando empieza la armonica, se remarca el SOL..

Asi..


1>-----------------------------------------------------
2>-----------------------------------------------------
3>-----------------------------------------------------
4>-----5---3-5-5-5-5---3-5-----------------------------
5>-------5-----5-5---5---------------------------------
6>--3----------3-3-------------------------------------


y la armonica es mas o menos asi

3 (3) 4 (4) 5 (4)b 4 3 (4)b 4 (3) 3


este es el punteo de cuando empieza la voz... de SOL cambia a MI

1>--------------------------------------------------------
2>--------------------------------------------------------
3>-----------0/1------------------------------------------
4>---2---0-2-----2---0-2----------------------------------
5>-----2-----------2--------------------------------------
6>-0------------------------------------------------------

...despues remarca el MI igual que el SOL

y esta es la parte del solo de armonica del medio

(5) 5 (4) 4 (5) 5 (4) 4 (4)b   (5)b (4)b
(5) 5 (4) 4 (5) 5 (4) 4 (4)b   (4)b (4)b  (5)b (4)b  (4)b (4)b
(5)b (4)b (5)b (4)b

...gira sobre los otros brazos.."

por alguna duda o correccion manden un mail a
joaquin_falca@ AGUANTEN 87
chau piojosos!!

            
            
Suggest correction
Creating personal tab
Creating personal tab
You can edit any tab online and save it as your Personal.

You can edit, replace or remove any tab part or add personal notes – all changes will be seen only by you.

Personal tabs can be accessed anytime from any device, even offline.
Learn more »
Give kudos to tab author, rate the tab!
1 2 3 4 5
comments
print report bad tab
guest
Wanna post a correction for this tab? Suggest correction