Oops, an error
Loading. Please wait.

Shup - Shup tab

version 2
version 2

Whole song

46 views 1 this week
no commentswrite comment
1 2 3 4 5
3 more votes to show rating
add to favorites
×
Save as Personal and add changes to this tab that will be seen only by you. Learn more ›
×
You can save this tab as Personal to edit and correct it or add notes. All changes will be seen only by you. Learn more »
launch autoscroll
font size
0
reset
how to read this tab
guitar tuner
edit
Autoscroll
slow
fast
+/-
esc
set tempo
stop
Debía tocar este tema y como no encontré una tablatura digna en internet
lo transcribí directamente escuchándolo.
Aclaro que lo saque como para tocar una viola solamente,
lo mas fiel posible.
Espero que les sirva.
Saludos!


INTRO

e|--------------------------------------------------------------------||
B|----------2-4-2-2-4-2-----------7b8-7b8-----------------------------||
G|----------0-0-3-3-0-3-----------7b8-7b8-----------------------------||
D|2-2-2-2-2-------------2-2-2-2-2-------------------------------------||
A|0-0-4-0-4-------------0-0-0-4-0-------------------------------------||
E|--------------------------------------------------------------------||

e|-----------------------------------9-9v-----------------------------||
B|----------2-4-2-2-4-2-----------------------------------------------||
G|----------0-0-3-3-0-3-----------s9v---------------------------------||
D|2-2-2-2-2-------------2-2-2-2-2-------------------------------------||
A|0-0-4-0-4-------------0-0-0-4-0-------------------------------------||
E|--------------------------------------------------------------------||

El tipo dice que es difícil, que lo duro va a pasar

e|--------------------------------------------------------------------||
B|----------2-2---2---------------6s8-8-8-6-8-8-8---------------------||
G|----------0-3h4-3h4-------------7s9-9-9-7s9-9-9---------------------||
D|2-2-2-2-2-------------2-2-2-2-2-------------------------------------||
A|0-0-4-0-4-------------0-0-0-4-0-------------------------------------||
E|--------------------------------------------------------------------||

el tipo habla de futuro
y no tenés laburo y a él lo están por echar

e|---------------------------------s9-9-9-----------------------------||
B|----------2----------------------s8-8-8-----------------------------||
G|----------0----------------------s9-9-9-----------------------------||
D|2-2-2-2-2-------------2-2-2-2-2-------------------------------------||
A|0-0-4-0-4-------------0-0-0-4-0-------------------------------------||
E|--------------------------------------------------------------------||

el tipo tiene gesto duro
y bajo el escritorio un perfume singular
la nena lo hace sin apuro
y entre una cosa y otra es difícil gobernar

e|--------------------------||
B|------------2-2-2-2-2-2---||
G|------------0-0-3-4-0-0---||   X 4
D|2-2-2-2-2-2---------------||
A|0-0-3-4-0-0---------------||
E|--------------------------||

Shup shup shuburu bla bla...

e|---------------10v---||
B|------------s11--v---||
G|---------------------||  X4
D|2-2-2-2-2-2----------||
A|0-0-3-4-0-0----------||
E|---------------------||

e|---------------------------------------------------------------------||
B|----------2-2---2---------------6s8-8-8-6-8-8-8----------------------||
G|----------0-3h4-3h4-------------7s9-9-9-7s9-9-9----------------------||
D|2-2-2-2-2-------------2-2-2-2-2--------------------------------------||
A|0-0-4-0-4-------------0-0-0-4-0--------------------------------------||
E|---------------------------------------------------------------------||

Ella habla que le gusta el cine
ella habla que de su casa se va

e|------------------------------------9-9v-----------------------------||
B|----------2----------------------------------------------------------||
G|----------0----------------------s9v---------------------------------||
D|2-2-2-2-2-------------2-2-2-2-2--------------------------------------||
A|0-0-4-0-4-------------0-0-0-4-0--------------------------------------||
E|---------------------------------------------------------------------||

cada tanto decís si
te mira, sonríe, fuma y vuelve a hablar

e|--------------------------------s9-9-9v------------------------------||
B|----------2-7b8-7b8-------------s8-8-8v------------------------------||
G|----------0-7b8-7b8-------------s9-9-9v------------------------------||
D|2-2-2-2-2-------------2-2-2-2-2--------------------------------------||
A|0-0-4-0-4-------------0-0-0-4-0--------------------------------------||
E|---------------------------------------------------------------------||

Ella tiene labios gruesos
y mueve las manos y te toca al pasar
y vos estás pensando solamente en eso
estás pensando sólo en como hacerla callar

e|--------------------------||
B|------------2-2-2-2-2-2---||
G|------------0-0-3-4-0-0---||   X 4
D|2-2-2-2-2-2---------------||
A|0-0-3-4-0-0---------------||
E|--------------------------||

Shup shup shuburu bla bla...

e|---------------10v---||
B|------------s11--v---||
G|---------------------||  X4
D|2-2-2-2-2-2----------||
A|0-0-3-4-0-0----------||
E|---------------------||


e|--------------10--------9---------------------------------------------||
B|-----------------10-10v---10------------------------------------------||
G|------5-7s11----------------9-11-10-9--------9-------9v--------9------||
D|5-4-7------------------------------------------9s8s9-------------9v---||
A|---------------------------------------10s11-------------10s11--------||
E|----------------------------------------------------------------------||

e|------10-13----13----------9-10-11-12---------------------------------||
B|11s12----12b13-12b13-12b14------------12b14---------------------------||
G|--------------------------------------------------9-------9v------9---||
D|----------------------------------------------------9s8s9-----------9v||
A|--------------------------------------------10s11------------10s11----||
E|----------------------------------------------------------------------||

SOLO DE ARMÓNICA

e|--------------------------||
B|------------2-2-2-2-2-2---||
G|------------0-0-3-4-0-0---||   X 8
D|2-2-2-2-2-2---------------||
A|0-0-3-4-0-0---------------||
E|--------------------------||

Palo duro alcohol, palo duro rock'n'roll
palabras para cambiar la suerte
palo duro amor, palo para penas
palabras que se tiran al oído de una nena
palo duro arriba, palo que se traba
palabras que se mojan, y que en tu boca se clavan

SILENCIO

e|--------------------------------------------------||
B|------------2-2-2-2-2-2-------------2-------------||
G|------------0-0-3-4-0-0-------------0-5-5-5-5-5---||
D|2-2-2-2-2-2-------------2-2-2-2-2-2---5-5-5-5-5---||
A|0-0-3-4-0-0-------------0-0-3-4-0-0---3-3-3-3-3---||
E|--------------------------------------------------||

Shup shup shuburu bla bla...

e|---------------10v---||
B|------------s11--v---||
G|---------------------||  X7
D|2-2-2-2-2-2----------||
A|0-0-3-4-0-0----------||
E|---------------------||

e|---------------10v----------5S---||
B|------------5-5-5-5-5-------8S---||
G|------------5-5-5-5-5-------6S---||
D|2-2-2-2-2-2-3-3-3-3-3-2-----5S---||
A|0-0-3-4-0-0-----------0-----7S---||
E|----------------------------5S---||

            
            
Suggest correction
Creating personal tab
Creating personal tab
You can edit any tab online and save it as your Personal.

You can edit, replace or remove any tab part or add personal notes – all changes will be seen only by you.

Personal tabs can be accessed anytime from any device, even offline.
Learn more »
Give kudos to tab author, rate the tab!
1 2 3 4 5
comments
print report bad tab
guest
Wanna post a correction for this tab? Suggest correction