Oops, an error
Loading. Please wait.

David Y Claudia tab

120 views 1 this week
no commentswrite comment
1 2 3 4 5
3 more votes to show rating
add to favorites
×
Save as Personal and add changes to this tab that will be seen only by you. Learn more ›
×
You can save this tab as Personal to edit and correct it or add notes. All changes will be seen only by you. Learn more »
launch autoscroll
font size
0
reset
how to read this tab
guitar tuner
edit
Autoscroll
slow
fast
+/-
esc
set tempo
stop
NOTACION

h= hammer on
>= mantener el sonido

------------------------------------------------------------
------------------------------------------------------------

AFINACION

Normal (standar)

------------------------------------------------------------
------------------------------------------------------------


-----
INTRO
-----

Guitarra 1
                                   
---------0---------0-------------------
--15h17-----17-17-----17-17-17-17--15--
---------------------------------------
--------------------------------------- (x3)
---------------------------------------
---------------------------------------

---------0------------------
--15h17-----17--14-14--15>--
----------------14-14--14>--
----------------------------
----------------------------
----------------------------


Guitarra 2

------------0--2-2--3--2-2--------------3--2-2--0--2-2--                        
--0---2-2---3--3-3--3--3-3----0---2-2---3--3-3--3--3-3--
--0---2-2---2--2-2--2--2-2----0---2-2---2--2-2--2--2-2--
--2---2-2---0--0-0--0--0-0----2---2-2---0--0-0--0--0-0--
--2---0-0---------------------2---0-0-------------------
--------------------------------------------------------

------------0--2-2--3--2-2--------------0-0--2>--                        
--0---2-2---3--3-3--3--3-3----0---2-2---3-3--3>--
--0---2-2---2--2-2--2--2-2----0---2-2---2-2--2>--
--2---2-2---0--0-0--0--0-0----2---2-2---0-0--0>--
--2---0-0---------------------2---0-0------------
-------------------------------------------------


-------
VERSO 1
-------

Guitarra 1

-------0-------0---0---0--
--3h5-----5-5----5---5----
--------------------------
-------------------------- (x4)
--------------------------
--------------------------


Guitarra 2

--------------------------------------------------------
--3---0-0---3--3-3--3--3-3----3---2-2---3--2--0-0--2-2--
--0---0-0---0--0-0--0--0-0----2---2-2---2--2--2-2--2-2--
--2---2-2---2--2-2--2--2-2----2---2-2---2--2--2-2--2-2--
--2---2-2---2--2-2--2--2-2----0---0-0---0--0--0-0--0-0--
--------------------------------------------------------
  Puedo hacer                 Lo que quiera

------------2--2-2--2--2-2------------------------------
--3---0-0---0--0-0--0--0-0----3---2-2---3--2--0-0--2-2--
--0---0-0---0--0-0--0--0-0----2---2-2---2--2--2-2--2-2--
--2---2-2---2--2-2--2--2-2----2---2-2---2--2--2-2--2-2--
--2---2-2---2--2-2--2--2-2----0---0-0---0--0--0-0--0-0--
--------------------------------------------------------
  Puedo hacer                 Una esfera


--------
CHORUS 1
--------

Guitarra 1

--3-3-3--2-----------------3-3-3--2-----------
------------5-3--2-3-5-3-------------5-3--5>--
----------------------------------------------
----------------------------------------------
----------------------------------------------
----------------------------------------------


Guitarra 2

--3-3-3---2-0-0---------------------3-3-3---2-0-2------
--0-0-0---0-0-3---2--3-3--0--3-3----3-3-3---3-3-3--2>--
--0-0-0---0-0-0---2--2-2--2--2-2----2-2-2---2-2-2--2>--
--0-0-0---0-0-0---2--2-2--2--2-2----0-0-0---0-0-0--2>--
--2-2-2-----------0--0-0--0--0-0-------------------0>--
--3-3-3------------------------------------------------
  Y viajar en su interior           Y llegar a las
                                    estrellas


-------
VERSO 2 (Tocar lo mismo que en Verso 1)
-------

Puedo hacer que te vuelvas

Desde dentro hacia fuera


--------
CHORUS 2
--------

Guitarra 1

--3-3-3--2-----------------3-3-3--2-----------
------------5-3--2-3-5-3-------------5-3--5-5-
----------------------------------------------
----------------------------------------------
----------------------------------------------
----------------------------------------------

--3-3-3--2--------------------
------------5-3--2-3-5-3--5>--
------------------------------
------------------------------
------------------------------
------------------------------


Guitarra 2

--3-3-3---2-0-0-------------------
--0-0-0---0-0-3---2--3-3--0--3-3--
--0-0-0---0-0-0---2--2-2--2--2-2--
--0-0-0---0-0-0---2--2-2--2--2-2--
--2-2-2-----------0--0-0--0--0-0--
--3-3-3---------------------------
  Puedo hacer que no haya sol

--3-3-3---2-0-2-------------------
--3-3-3---3-3-3---2--2-2--2--2-2--
--2-2-2---2-2-2---2--2-2--2--2-2--
--0-0-0---0-0-0---2--2-2--2--2-2--
------------------0--0-0--0--0-0--
----------------------------------
  Puedo hacer que no lo veas

--3-3-3---2-0-0-----------------------
--0-0-0---0-0-3---2--3-3--0--3-3--0>--
--0-0-0---0-0-0---2--2-2--2--2-2--0>--
--0-0-0---0-0-0---2--2-2--2--2-2--2>--
--2-2-2-----------0--0-0--0--0-0--2>--
--3-3-3-------------------------------
  Y que nadie lo recuerde nunca más


------------------------------------------------------------
------------------------------------------------------------


--------------------------
DAVID Y CLAUDIA (Acústico)
--------------------------

--------------------
FORMACION DE ACORDES

A     (x02220)
Asus2 (x02200)
Asus4 (x02230)
D     (xx0232)
Dsus2 (xx0230)
Dsus4 (xx0233)
Em    (022000)
Em7   (022030)
E/Gb  (022002)
G     (320003)
G/Gb  (320002)
G?    (320000)
G6    (320030)
-------------------


-----
INTRO
-----

Em  A  Dsus2-D-Dsus4-D

Em  A  Dsus4-D-Dsus2-D

Em  A  Dsus2-D-Dsus4-D

Em  A  Dsus2-D

-------
VERSO 1
-------

           Em7  Em  Em7
Puedo hacer

             Asus4-A  Asus4-A-Asus2  A
Lo que quiera

           Em7  Em  E/Gb
Puedo hacer

          Asus4-A  Asus4-A-Asus2  A
Una esfera

--------
CHORUS 1
--------

      G  G/Gb-G?-G6  A-Asus4-Asus2-Asus4 
Y viajar en su interior

      Dsus4  D-Dsus2-D  A
Y llegar a las estrellas

-------
VERSO 2
-------

           Em7  Em  Em7
Puedo hacer

              Asus4-A  Asus4-A-Asus2  A
Que te vuelvas

            Em7  Em  E/Gb
Desde dentro

           Asus4-A  Asus4-A-Asus2  A
Hacia fuera

--------
CHORUS 2
--------

        G  G/Gb-G?-G6  A-Asus4-Asus2-Asus4 
Puedo hacer que no haya sol

        Dsus4  D-Dsus2-D  A
Puedo hacer que no lo veas

        G  G/Gb-G?-G6  A-Asus4-Asus2-Asus4
Y que nadie lo recuerde

         Em
Nunca más

(TOCAR DE NUEVO LA INTRO)

-------
VERSO 3
-------

           Em7  Em  Em7
Puedo hacer

          Asus4-A  Asus4-A-Asus2  A
Una prueba

           Em7  Em  E/Gb
Puedo hacer

              Asus4-A  Asus4-A-Asus2  A
Que me quieras

--------
CHORUS 3
--------

        G  G/Gb-G?-G6  A-Asus4-Asus2-Asus4 
Puedo andar dentro de tí

        Dsus4  D-Dsus2-D  A
Puedo estar en tu cabeza

        G  G/Gb-G?-G6  A-Asus4-Asus2-Asus4
Y que no mires a nadie

         Em
Nunca más

(TOCAR DE NUEVO LA INTRO)

------------------------------------------------------------
------------------------------------------------------------

            
            
Suggest correction
Creating personal tab
Creating personal tab
You can edit any tab online and save it as your Personal.

You can edit, replace or remove any tab part or add personal notes – all changes will be seen only by you.

Personal tabs can be accessed anytime from any device, even offline.
Learn more »
Give kudos to tab author, rate the tab!
1 2 3 4 5
comments
print report bad tab
guest
Wanna post a correction for this tab? Suggest correction