Oops, an error
Loading. Please wait.

Aijo chords

68 views 1 this week
no commentswrite comment
1 2 3 4 5
3 more votes to show rating
add to favorites
×
Save as Personal and add changes to this tab that will be seen only by you. Learn more ›
×
You can save this tab as Personal to edit and correct it or add notes. All changes will be seen only by you. Learn more »
launch autoscroll
font size
0
reset
transpose
0
reset
display chords
guitar tuner
edit
Autoscroll
slow
fast
+/-
esc
set tempo
stop
Strumming
There is no strumming pattern for this song yet. and get +5 IQ
INTRO

PALM MUTE
E B# G D B    

E                     B#
MIRADA TRISTE DE HOMBRE MAYOR
                       G
LA CARA KURTIDA DE ESTAR AL SOL
                D   B      
YA NO SIENTE EL DOLOR


E                       B#
TODA LA VIDA EN LA KONSTRUCCION
                         G
METIDO EN EL TAJO ECHO UN KABRON
                  D   B
PERO NUNKA SE QUEJO


E                    B#
LA REUMA LE DESTROZO
                             G
LAS MANOS CURTIDAS SOLO HEREDO
               D      B
DE SU PUTA PROFESION


G        D          E (P.M.)
AIJO AIJO AIJO AIJO JODER POR LAS MAÑANAS
G        D          E (P.M.)
AIJO AIJO AIJO AIJO JODER KOMO CURRUBA
G        D          E (P.M.)
AIJO AIJO AIJO AIJO KON LA PALA EN LA ESPALDA
G        D          E (P.M.)
AIJO AIJO AIJO AIJO KON LA FRENTE SUDADAAAA


E -------------------------------------------------------------------------------------------------
B --------------7-8-7-------------------------------------------------------7-8--------------------
G ----------7-9-------9---------------------------------------------------------7------9-7---------
D -9-9-7----------------9-10-9-7--9---------9---------10---------10---------------9--------10-9-7--
A -------10-------------------------10-9-10---10-9-10----10-9-10----10-9-10---------10-------------
E -------------------------------------------------------------------------------------------------

E ---------------------------------------------------------------------7------10--6_7--6----------
B --------------------------------------------7-8------------7-8-7---7----10-8------------10-8-----
G ------------------------------------------------7------9-7-------9-------------------------------
D -9---------9----------10---------10---------------9----------------------------------------------
A ---10-9-10----10-9-10----10-9-10----10-9-10---------10-------------------------------------------
E -------------------------------------------------------------------------------------------------


E              B#
Y AL FINAL SE JUBILO
             G
Y ESE AÑO NO KOBRO
            D   B
PORKE LAS PALMO

E                     B#
LA MORALEJA DE ESTA KANCION 
                        G
KE NO TE FIES DE NINGUN PATRON
               D      B
KE MUCHO TE PROMETIO


G        D          E (P.M.)
AIJO AIJO AIJO AIJO JODER POR LAS MAÑANAS
G        D          E (P.M.)
AIJO AIJO AIJO AIJO JODER KOMO KURRUBA
G        D          E (P.M.)
AIJO AIJO AIJO AIJO KON LA PALA EN LA ESPALDA
G        D          E (P.M.)
AIJO AIJO AIJO AIJO KON LA FRENTE SUDADAAAA


OTRA PAL DENIS (ALU CHE)

            
            
Suggest correction
Creating personal tab
Creating personal tab
You can edit any tab online and save it as your Personal.

You can edit, replace or remove any tab part or add personal notes – all changes will be seen only by you.

Personal tabs can be accessed anytime from any device, even offline.
Learn more »
Give kudos to tab author, rate the tab!
1 2 3 4 5
comments
print report bad tab
guest
Wanna post a correction for this tab? Suggest correction