Oops, an error
Loading. Please wait.

Porretas tab

73 views 1 this week
no commentswrite comment
1 2 3 4 5
3 more votes to show rating
add to favorites
×
Save as Personal and add changes to this tab that will be seen only by you. Learn more ›
×
You can save this tab as Personal to edit and correct it or add notes. All changes will be seen only by you. Learn more »
launch autoscroll
font size
0
reset
how to read this tab
guitar tuner
edit
Autoscroll
slow
fast
+/-
esc
set tempo
stop
Esta canción, autobiografica, es mu sencillita, ninguna complicacion.
Va todo el rato con las mismas tres quintas, en el estribillo cambia el ritmo,
Os pongo la letra, el solo y a disfrutarla!!


En la intro suena el bajo

|----------------------------------|
|-------------------------7-7-7-7--|
|-----------------5-5-5-5----------|
|--5-5-5-5-5-5-5-5-----------------|


 

A                             D           E
To empezó en un local de un colega llamado Abad 
unos litros, unos canutos, muchas ganas de tocar 
menos mal que nos compramos una nueva batera 
Lillo dejó de hacer ruido con la puta cazuela. 

A                   D      E
Y nos llaman los Porre oeeeeeee Los Porretas. 
Y nos llaman los Porre oeeeeeee Los Porretas. 

Teníamos un ampli para enchufarlo to 
y una cosa muy rara que da vueltas pá la voz. 
Estas pantallas, nos salieron bien baratas 
me parece que esta vez nos ha tangao el Caparratas. 

Y nos llaman los Porre oeeeeeee Los Porretas. 
Y nos llaman los Porre oeeeeeee Los Porretas. 

e|------------------------------------------------|
b|------------------------------------------------|
g|-9-9--9&11&9-9-----9-9--9&11&9-9----------------|
D|------------------------------------7-7-----7---|
A|-----------------------------------------9------|
E|------------------------------------------------|

e|------------------------------------------------|
b|------------------------------------------------|
g|-9-9--9&11&9-9-----9-9--9&11&9-9----------------|
D|-------------------------------------9-9----9---|
A|-----------------------------------------7------|
E|------------------------------------------------|

e|-----------------------------------------7------|
b|-----------------------------------10-10---10---|
g|-9-9--9&11&9-9-----9-9--9&11&9-9----------------|
D|------------------------------------------------|
A|------------------------------------------------|
E|------------------------------------------------|

e|----7-10b--10-7-10-7----------------------------|
b|-10-------------------------10-8-7-8-7----------|
g|---------------------------------------9-7------|
D|------------------------------------------------|
A|------------------------------------------------|
E|------------------------------------------------|


Como andabamos tan mal con la cosa del dinero 
tuvimos que meter a un guitarra bodeguero 
él se enrolló muy bien y nos montó una porra 
pero siempre está gritando ¡¡AQUÍ NADIE BEBE DE GORRA!! 

Y nos llaman los Porre oeeeeeee Los Porretas. 
Y nos llaman los Porre oeeeeeee Los Porretas. 

Después metimos a Luís, menudo pieza 
nos fuimos tos pa Cádiz, en la furgoneta. 
Un tío allí le dijo, pon la mano en el muro 
y si se descuida le endiñan por el ... 

Y nos llaman los Porre oeeeeeee Los Porretas. 
Y nos llaman los Porre oeeeeeee Los Porretas. 


y aki el final, se tocan todas con la tónica en la 5ª cuerda:     E5  D5  C#5 B5  A5  

Pues hala, pa lo q querais, si esta mal o alguien tiene algo q le suene mejor, 
hacedmelo saber estoy en patxilopera@

            
            
Suggest correction
Creating personal tab
Creating personal tab
You can edit any tab online and save it as your Personal.

You can edit, replace or remove any tab part or add personal notes – all changes will be seen only by you.

Personal tabs can be accessed anytime from any device, even offline.
Learn more »
Give kudos to tab author, rate the tab!
1 2 3 4 5
comments
print report bad tab
guest
Wanna post a correction for this tab? Suggest correction