Oops, an error
Loading. Please wait.

La Voz De Los Ochenta tab

version 3
version 3

Whole song

90 views 1 this week
no commentswrite comment
1 2 3 4 5
3 more votes to show rating
add to favorites
×
Save as Personal and add changes to this tab that will be seen only by you. Learn more ›
×
You can save this tab as Personal to edit and correct it or add notes. All changes will be seen only by you. Learn more »
launch autoscroll
font size
0
reset
how to read this tab
guitar tuner
edit
Autoscroll
slow
fast
+/-
esc
set tempo
stop
Intro:(2 veces cada cuerda)
E|-----------------------------------|
B|-----------------------------------|
G|-----------------------------------|
D|-----------------------------------|
A|----6-7-9----6-7-9---6-7-9---6-7-9-|
E|--7--------7-------7-------7-------|


Versos:
     B       E       D       A
E|-2-----|-7-----|-5-----|-5------|
B|-2-----|-7-----|-5-----|-5------|
G|-2---4-|-7---9-|-5---7-|-5--6---|
D|-2---4-|-7---9-|-5---7-|-5----7-|
A|-2-----|-7-----|-5-----|-5----7-|
E|-x-----|-7-----|-5-----|-5------|


Versos:
B             E
Algo grande esta naciendo
D             A
en la década de los ochenta

B            E
ya se siente la atmósfera
D        A
saturada de aburrimiento

B                      E
los hippies y los punk tuvieron la ocasión
D          A
de romper el estancamiento

B             E
en las garras de la comercialización
D             A
murió toda la buena impresión

Intro:

Versos:

Las juventudes cacarearon bastante
y no convencen ni por solo un instante
pidieron comprensión, amor y paz
con frases hechas muchos años atrás

Deja la inercia de los setenta abre los ojos ponte de pie
escucha el latido sintoniza el sonido
agudiza tus sentidos date cuenta que estas vivo

Coro:
    B       A      G#m       G
E|-2-----|-5-----|-4-----|-3------|
B|-2-----|-5-----|-4-----|-3------|
G|-2---4-|-5---7-|-4-----|-3--4---|
D|-2---4-|-5---7-|-4---6-|-3----5-|
A|-2-----|-5-----|-4---6-|-3----5-|
E|-2-----|-5-----|-4-----|-3------|

B
Ya viene
A
la fuerza
G#m
La voz de
G
los ochenta

B
Ya viene
A
la fuerza
G#m
La voz de
G
los ochenta
G#m
La voz de
G
los ochenta

Intro:

Verso:

En Roma, Lima y en Santander
la gente de tu edad no sabe que hacer
Santiago, Asunción y también Buenos Aires
bueno las cosas no están que arden
sangre latina necesita el mundo
roja furiosa y adolescente
sangre latina necesita el planeta
adiós barreras, adiós setentas

Coro:

Ya viene la fuerza
La voz de los ochenta
Ya viene la fuerza
La voz de los ochenta
La voz de los ochenta

Intro:

Solo:

E|---------------------------------------------------|
B|----------9-12-9---7--9-9/10-7---5-7-7/8-----------|
G|---8-9-11--------9-------------7-----------6-6/9-6-| X4
D|-9---------------------------------------7---------|
A|---------------------------------------------------|
E|---------------------------------------------------|

En plena edad del plástico
seremos fuerza seremos cambio -----(El punteo se hace 2 veces sin voz
no te conformes con mirar           y 2 veces con voz)
en los ochenta tu rol es

Outro:

         B                  D

E|-------------------|---------------|
B|-------------------|---------------|
G|-------------------|---------------|
D|---8-9-11---8-9-11-|--4-5-7--4-5-7-|
A|-9--------9--------|-5------5------|
E|-------------------|---------------|


     G      A       F#
E|-3-----|-5-----|-2-----|
B|-3-----|-5-----|-2-----|
G|-3-4---|-5-6---|-2-3---|
D|-3--5--|-5---7-|-2---4-|
A|-3--5--|-5---7-|-2---4-|
E|-3-----|-5-----|-2-----|


B
estelar
D
tienes la fuerza eres
B
actor principal
G
de las entrañas de nuestras ciudades
A
surge la piel
F#
que vestirá al mundo


Coro:
Ya viene la fuerza
La voz de los ochenta
Ya viene la fuerza
La voz de los ochenta
La voz de los ochenta

Intro:

Verso:(enesta parte solo se rasgue una vez y despues se apañan las cuerdas)

Escucha el murmullo, algo se siente venir
los últimos vientos de los setenta se mueren

(Aca es cuando se apañan)
mira nuestra juventud, que alegría mas triste y falsa

Deja la inercia de los setenta abre los ojos ponte de pie
escucha el latido sintoniza el sonido
agudiza tus sentidos date cuenta que estas vivo

Coro:

Ya viene la fuerza
La voz de los ochenta
Ya viene la fuerza
La voz de los ochenta

Final:(aca solo una vez cada cuerda)

E|--------------------------------------------------|
B|--------------------------------------------------|
G|--------------------------------------------------|
D|--------------------------------------------------|
A|--6-7-9---6-7-9---6-7-9---6-7-9---6-7-9---6-7-9-6-|
E|-7------7-------7-------7-------7-------7---------|

pidanme canciones a mi correo ccc_06_21@

            
            
Suggest correction
Creating personal tab
Creating personal tab
You can edit any tab online and save it as your Personal.

You can edit, replace or remove any tab part or add personal notes – all changes will be seen only by you.

Personal tabs can be accessed anytime from any device, even offline.
Learn more »
Give kudos to tab author, rate the tab!
1 2 3 4 5
comments
print report bad tab
guest
Wanna post a correction for this tab? Suggest correction