Oops, an error
Loading. Please wait.

Lo Estamos Pasando Muy Bien bass

version 1
version 1

Whole song

326 views 6 this week
no commentswrite comment
1 2 3 4 5
3 more votes to show rating
add to favorites
×
Save as Personal and add changes to this tab that will be seen only by you. Learn more ›
×
You can save this tab as Personal to edit and correct it or add notes. All changes will be seen only by you. Learn more »
launch autoscroll
font size
0
reset
guitar tuner
edit
Autoscroll
slow
fast
+/-
esc
set tempo
stop
-=Intro=-
   repite 6x
G|-----------------|----------------------------------
D|-----------------|----------------------------------
A|-----------------|------------------2-2-2-2-2-2-2-2-
E|-0--0--3--3--5-3-|-0--0--3--3--3-5------------------

-=Riff=-
G|---------------------------------
D|---------------------------------
A|---------------------------------
E|-0--0--0--2--3-3--2--3-----5--7--

G|---------------------------------
D|---------------------------------
A|---------------------------------
E|-0--0--0--2--3-3--2--3--5--3--2--

G|---------------------------------
D|---------------------------------
A|---------------------------------
E|-0--0--0--2--3-3--2--3--7--5--3--

G|---------------------------------
D|---------------------------------
A|-5--5-5-5--5-5-5--5-5-5--6-------
E|---------------------------------

-=Primer Verso=-
G|----------------------------------------------
D|----------------------------------------------
A|------(pausa)------5--5-5--5-5-5-3--5-5-5--6--
E|----------------------------------------------
Como puedes ver .....Ideal   (para vivir lo mejor)

G|----------------------------------------------
D|----------------------------------------------
A|------(pausa)------5--5-5--5-5-5-3--5-5-5-5-0-
E|----------------------------------------------
Todos tenemos .......Felicidad

-=Riff #1 (con un cambio)=-
G|---------------------------------
D|---------------------------------
A|---------------------------------
E|-0--0--0--2--3-3--2--3--2--3--7--

G|---------------------------------
D|---------------------------------
A|---------------------------------
E|-0--0--0--2--3-3--2--3--5--3--2--

G|---------------------------------
D|---------------------------------
A|---------------------------------
E|-0--0--0--2--3-3--2--3--7--5--3--

G|---------------------------------
D|---------------------------------
A|-5--5-5-5--5-5-5--5-5-5--6-------
E|---------------------------------

-=Segundo Verso=-
G|---|---|---|----------------------------
D|---|---|---|----------------------------
A|---|---|---|--5--5-5-5--5-3-5--5-5-5--6-
E|-0-|-0-|-0-|----------------------------


-=Coro=-
G|---------------------------------
D|---------------------------------
A|---------------------------------
E|-0--0--0--2--3-3--2--3---------7-
   Lo estamos pasando muy bien (yeah yeah yeah yeah!)
G|---------------------------------
D|---------------------------------
A|---------------------------------
E|-0--0--0--2--3-3--2--3---------7-
   Engordamos bastante (ia ia ia oh!)
G|---------------------------------
D|---------------------------------
A|---------------------------------
E|-0--0--0--2--3-3--2--3--5--3--2--
  Esto es magnifico (tra la la la...
G|---------------------------------
D|---------------------------------
A|-5--5-5-5--5-3-5--5-5-5--6-------
E|---------------------------------
  ...laa!)
G|---------------------------------
D|---------------------------------
A|---------------------------------
E|-0--0--0--2--3-3--2--3--5--3--2--
   Lo estamos pasando muy bien (yeah yeah yeah yeah!)
G|---------------------------------
D|---------------------------------
A|---------------------------------
E|-0--0--0--2--3-3--2--3--7--5--3--
   Engordamos bastante (ia ia ia oh!)
G|---------------------------------
D|---------------------------------
A|---------------------------------
E|-0--0--0--2--3-3--2--3--7--5--3--
  Esto es magnifico (tra la la la...
G|---------------------------------
D|---------------------------------
A|-5--5-5-5--5-3-5--5-5-5--6-------
E|---------------------------------
  ...laa!)

-=Tercer Verso=-
G|--------------|--------------|----------------|----------------------------
D|--------------|--------------|----------------|----------------------------
A|------------7-|------------7-|----------------|--5--5-5-5--5-5-5--5-5-5--5-
E|-0--0-2-3-----|-0--0-2-3-----|-0--0-2-3---3-2-|----------------------------
  La comida...   el vino...     todos quedamos...no es cierto?

G|---------------------------|---------------------------
D|---------------------------|---------------------------
A|---------------------------|---------------------------
E|-0--0-3-3-5-3-0--0-3-3-5-3-|-0--0-3-3-5-3-0--0-3-3-5-3-
  Si se trata de estudiar...  un nuevo hogar, un...

G|---------------------------|---------------------------
D|---------------------------|---------------------------
A|---------------------------|-5--5-5-5--5-5-5--5-5-5--6-
E|-0--0-3-3-5-3-0--0-3-3-5-2-|---------------------------
  el trato esta ahí, la...    que importa el costo!


-=Orden=-
 Intro
 Riff
 Primer Verso
 Riff #2
 Segundo Verso
 Coro
 Pausa (Los Picapiedras)
 Tercer Verso
 Coro
 Pausa
 Más pausa (yeah yeah yeah yeah!, ia ia ia oh!, tra la la la la!)
 Coro
 Repite segunda mitad del Coro hasta el final

            
            
Suggest correction
Creating personal tab
Creating personal tab
You can edit any tab online and save it as your Personal.

You can edit, replace or remove any tab part or add personal notes – all changes will be seen only by you.

Personal tabs can be accessed anytime from any device, even offline.
Learn more »
Give kudos to tab author, rate the tab!
1 2 3 4 5
comments
print report bad tab
guest
Wanna post a correction for this tab? Suggest correction