Oops, an error
Loading. Please wait.

Lo Estamos Pasando Muy Bien tab

224 views 1 this week
no commentswrite comment
1 2 3 4 5
3 more votes to show rating
add to favorites
×
Save as Personal and add changes to this tab that will be seen only by you. Learn more ›
×
You can save this tab as Personal to edit and correct it or add notes. All changes will be seen only by you. Learn more »
launch autoscroll
font size
0
reset
how to read this tab
guitar tuner
edit
Autoscroll
slow
fast
+/-
esc
set tempo
stop
Esta es le vercion del disco ni por la razon ni por la fuerza

 Intro: 

     Em         G   x3    D             x2
      
 E--7-7-7-7-7--7-7-7-7-7--5-5-5--5--6--       
 B--8-8-8-8-8--8-8-8-8-8--7-7-7--7--7--
 G--9-9-9-9-9--7-7-7-7-7--7-7-7--7--8--
 D-------------------------------------
 A-------------------------------------
 E-------------------------------------

 Como puedes ver las vitrinas están llenas 
      
 de cosas que comprar 
                                 
 En sus autos la gente va feliz a trabajar 
 
 No hay problemas... ni necesidad... 
                    D 
 Este lugar es ideal... (Para vivir, lo mejor) 
                                         
 Todos tenemos mucho dinero para gastar 
                                               
 Compramos en el Parque Arauco y en el Almac 
                                                 
 Nada es muy caro si se trata de nuestra... 
          D 
 Felicidad... 

-Intro 
                                           E
 Todos tenemos un trabajo digno y bien pagado 
                                        E
 Nadie está en desventaja ni es maltratado 
                                          
 Nuestros jefes nos sonríen y nosotros también 
    D
 a ellos... 
 Em                          G
 Aquí no roba nadie ni hay por qué robar 
  Em                           G
 Nuestros sueldos son buenos y hasta podemos ahorrar 
   Em                           G
 Ven tú también a jugar que somos un país 
      D
 ... de verdad... 


  Em                                        G
 Lo estamos pasando muy bien - Yeah Yeah Yeah Yeah 
   Em                              G 
 Engordamos bastante - Ia Ia Ia O 
   Em                      G                   D 
 Esto es magnífico - Tra La La La La 
  Em                                        G 
 Lo estamos pasando muy bien - Yeah Yeah Yeah Yeah 
  Em                             G 
 Engordamos bastante - Ia Ia Ia  
  Em                G                 D                      
 Esto es la magnifico - Tra La La La La 

 Solo:

 E-----------5-5-5-5-5-5-5---------------------------5-5-5-5-5-5-------------------
 B5-5-5-5-5-5-------------5-5-5-5-5-5-----5-5-5-5-5-5------------3-3-4-5-----------
 G---------------------------------------------------------------------------------
 D------------------------------------7-8------------------------------------------
 A------------------------------------5-6------------------------------------------
 E---------------------------------------------------------------------------------

   Em                            G     
 La comida es muy buena si lo que quieres es comer 
    Em                           G
 El vino, las carnes o un pollito muy bien asado 
    Em                           G
 Todos quedamos satisfechos después del almuerzo 
      D
 No es cierto?  ( si que lo es, si que lo es ) 
    Em                       G
 Si se trata de estudiar ahí está la universidad 
    Em                          G
 Un abogado, un arquitecto o enfermera puedes ser 
     Em                        G
 El trato es serio la enseñanza muy buena 
     D
 y el costo... (Qué importa el costo!) 


  Em                                        G
 Lo estamos pasando muy bien - Yeah Yeah Yeah Yeah 
   Em                              G 
 Engordamos bastante - Ia Ia Ia O 
   Em                      G                   D 
 Esto es magnífico - Tra La La La La 
  Em                                        G 
 Lo estamos pasando muy bien - Yeah Yeah Yeah Yeah 
  Em                             G 
 Engordamos bastante - Ia Ia Ia  
  Em                G                 D                      
 Esto es la magnifico - Tra La La La La 

-Solo

 Em                                        G
 Lo estamos pasando muy bien - Yeah Yeah Yeah Yeah 
   Em                              G 
 Engordamos bastante - Ia Ia Ia O 
   Em                      G                   D 
 Esto es magnífico - Tra La La La La 
  Em                                        G 
 Lo estamos pasando muy bien - Yeah Yeah Yeah Yeah 
  Em                             G 
 Engordamos bastante - Ia Ia Ia  
  Em                G                 D                      
 Esto es la magnifico - Tra La La La La 

 (Este es el punteo que hace mientras canta)
                                x3   
 E---------------------------------------------------------------------
 B---8-8-8-8-8-8-8-10---8-8-8-8-10--10-10-10-10-8-8-8-8-7-7-7-7-5-5-5-5
 G--9------------------9-----------------------------------------------
 D---------------------------------------------------------------------
 A---------------------------------------------------------------------
 E---------------------------------------------------------------------

 *Cualquier consulta escribanme a brigada@

            
            
Suggest correction
Creating personal tab
Creating personal tab
You can edit any tab online and save it as your Personal.

You can edit, replace or remove any tab part or add personal notes – all changes will be seen only by you.

Personal tabs can be accessed anytime from any device, even offline.
Learn more »
Give kudos to tab author, rate the tab!
1 2 3 4 5
comments
print report bad tab
guest
Wanna post a correction for this tab? Suggest correction