Oops, an error
Loading. Please wait.

Para Amar tab

version 1
version 1

Whole song

707 views 1 this week
no commentswrite comment
1 2 3 4 5
2 more votes to show rating
add to favorites
×
Save as Personal and add changes to this tab that will be seen only by you. Learn more ›
×
You can save this tab as Personal to edit and correct it or add notes. All changes will be seen only by you. Learn more »
launch autoscroll
font size
0
reset
how to read this tab
guitar tuner
edit
Autoscroll
slow
fast
+/-
esc
set tempo
stop
esta es una de mis canciones favoritas disfrutenla

toda la letra y lo demas es del estadio nacional, como nadie lo publica , ahi les puse las quintas por si no c lo saben


           D5       E5      D5   BM5       A5     G5      A5         C5 
E |------------------------------------------------------------------------------|
B |------------------------------------------------------------------------------|
G|------7--------9------7--------------------------------------------5---------|
D| -----7--------9------7-------9---------7-------5-------7-------- 5---------|
A| -----5--------7-------5------9---------7-------5-------7---------3---------|
E|-------------------------------7---------5-------3-------5--------------------|
intro:D5(17 veces) no c x q la hicieron tan larga pero en fin
en los acordes hay como un efecto d  q cordinar bien pa q suene chvr

 D5
Recuerdo cuando dije 
       E5       
Que este invierno
 D5
Seria menos frío 
     Bm5      A5
Que el anterior
             G5
Y aquí estoy
          A5       C5
Congelándome
  D5
No es fácil para mi
      E5
Hablar de esto
  D5
Sin manosear
                   Bm5
Las mismas palabras 
         A5
De amor
               G5
Que se entregan 
           A5   C5
A cualquiera 

CORO:
        D5 
Paramar
       A5
Paramar
           C5
Debes tratar 
            G5 
De poco entregar
        D5
Paramar
        A5
Paramar
       C5
Tu identidad
     G5
Debes falsear 
        D5
Paramar
        A5
Paramar
             C5
Siendo estúpido
   G5
Serás feliz
        D5
Paramar
        A5
Paramar
              C5
Debes evitar
 
Soñar ,  debes

Olvidar soñar.

 D5
Recuerdo cuando pensé
    E5
Que el mundo
 D5
Solo podría
                Bm5
Hacerme feliz
           A5
Alguna vez
           G5
Alguien como tu
            A5           C5
Nadie mas que tu
D5
Caminando en el frió
E5
Me pregunto 
D5
Si no ha nacido
               Bm5
Alguna chiquilla 
       A5           G5
Que no sepa amar
                         A5
Y quiera inventar
                         A5
Una nueva forma 


CORO:
        D5 
Paramar
       A5
Paramar
           C5
Debes tratar 
            G5 
De poco entregar
        D5
Paramar
        A5
Paramar
       C5
Tu identidad
     G5
Debes falsear 
        D5
Paramar
        A5
Paramar
             C5
Siendo estúpido
   G5
Serás feliz
        D5
Paramar
        A5
Paramar
              C5
Debes evitar
 
Soñar ,  debes

Olvidar soñar.
     C(toda esa part es con c)
Amor ,amor, donde oí
Esa palabra antes?
Rehice por ti mi horario
Y compre mas calendarios 
Me pase un video
En tres dimensiones
Con un final feliz
Trate de inyectarme
MI viejo optimismo
Pero ese que resulto
Aun era yo listo para amar


SOLO:

hay varias maneras de tocar este solo......capas claudio no lo toca asi pero yo si....suena bien
esto tb tiene un riff....donde esta (x2)se hace dos veces pero desde la R hasta la otra R

E|--------------------------------------------------------------------------------------------------|
B|--------------------------------------------------------------------------------------------------|
G|-R-12-12-12-11-11-11----------12-12-12-11-11-11------12-12-12-11-11-11----------------------------|
D|-------------------------12-12-------------------------11-------------------------10--------------|
A|--------------------------------------------------------------------------------------------------|
E|--------------------------------------------------------------------------------------------------|


E|---------------------------------------------------------------------------------------------------|
B|---------------------------------------------------------------------------------------------------|
G|--12-12-12-11-11-11------(R)(x2)--12-12-12-11-11-11--12-12h14--------------------------------------|
D|-------------------------9-9-----------------------------------------------------------------------|
A|---------------------------------------------------------------------------------------------------|
E|---------------------------------------------------------------------------------------------------|

E|----------------------------------------------------------------------------------------------------|
B|------------------------------------------(R)--15-15-15-14-14-14------15-15-15-14-14-14-------------|
G|-12-11-12-11-12-11-12-11-12h14----------------------------15-------------------------14-------------|
D-----------------------------------------------------------------------------------------------------|
A|----------------------------------------------------------------------------------------------------|
E|----------------------------------------------------------------------------------------------------|


E|----------------------------------------------------------------------------------------------------|
B|-15-15-15-14-14-14-------15-15-15-14-14-14------(R)(x2)--------15-15--14-14-14---12-----------------|
G|------------------------13--------------------------12----------------------------------------------|
D-----------------------------------------------------------------------------------------------------|
A|----------------------------------------------------------------------------------------------------|
E|----------------------------------------------------------------------------------------------------|

 D5
Nunca pensé que 
 E5
Justo este invierno
D5
Seria el mas frió
            Bm5    A5
Que he visto pasar
          G5   A5
Yo no sirvo
           D5
Para amar.

se los e dado masticadito esta recontra facil solo encontrar el ritmo es un poco dificl
como todas las publicaciones debe tener algunos errores pero son pequeños.

esta cancion es para una amiga q me a echo sentir bien en muchas ocaciones:P gracias lucia:P tqm amiga:D

            
            
Suggest correction
Creating personal tab
Creating personal tab
You can edit any tab online and save it as your Personal.

You can edit, replace or remove any tab part or add personal notes – all changes will be seen only by you.

Personal tabs can be accessed anytime from any device, even offline.
Learn more »
Give kudos to tab author, rate the tab!
1 2 3 4 5
comments
print report bad tab
guest
Wanna post a correction for this tab? Suggest correction