Oops, an error
Loading. Please wait.

San Miguel bass

103 views 1 this week
no commentswrite comment
1 2 3 4 5
3 more votes to show rating
add to favorites
×
Save as Personal and add changes to this tab that will be seen only by you. Learn more ›
×
You can save this tab as Personal to edit and correct it or add notes. All changes will be seen only by you. Learn more »
launch autoscroll
font size
0
reset
guitar tuner
edit
Autoscroll
slow
fast
+/-
esc
set tempo
stop
Bueno aqui les va este gran tema ¡Disfrutenlo!

"Ves como rueda la vida ves"

G---------------------------------|
D---------------------------------|
A------------------------------7--|
E-7/0--0--0-0--0--0-0---5--5-5----|

G---------------------------------------------|
D--------5------------------------------------|
A-3--3-3----------------2--2-2----------------|
E------------0--0-0--0---------5--5-5--5-320--|

G-----------------------------------------|
D-----------------------------------------|
A-------------------------7---3--3-3------|
E-0--0-0--0-0---5--5-5--5------------320--|

"No yo no estoy dañado no"

G------------------------------------|
D------------------------------------|
A-----------5----------5-------------|
E-0--3--3-3----3--3-3------5--5-5-0--|

G----------------------------------------------------------------------|
D--------------(4)-----------------------------------------------------|
A-3---3--22-22------3-3-3--2-2-2-------------2-2-2-2-2/6-6-6-6-6-6(7)--|
E---3----------------------------5-5-5-5-5-5---------------------------|

esta es la parte que la guitarra hace el riff, y el bajo hace esto

G-------------------------------|
D-------------------------------| se repite
A----00-3-------------5---------|
E--0------5-3--0--00-----5-2-0--|

al final de riff se hace esto

G--------------------------|
D--------------------------|
A--------------------------|
E-7-7-7-7-7-7-7-7-7---320--|

"Si, la hice remal"

G------------------------------------------------|
D------------------------------------------------|
A--------2-2----------------------3--3-3--3------|
E--0---0-----0---0-0---5--5-5--5------------320--|

G------------------------------------------|
D------------------------------------------|
A------2-2---------2--2-2--2---------------|
E-0--0------0--0-0------------5--5-5--320--|

G--------------------------------------------------|
D--------------------------------------------------|
A-------------------------------3-3-3-3-3-3-3------|
E-0-0-0-0-0-0-0-0-0-5-5-5-5-5-5---------------320--|

G-----------------------------------|
D-----------------------------------|
A-------2-2---2--2-2--2-------------|
E-0---0-----0------------5--5-5--0--|

se repite "No yo no estoy dañado"

luego viene el coro

G--------------------------------------|
D--------------------------------------| se repite
A-----------3---3-3-----------2---2-2--|
E--0---0-0-----------3---3-3-----------|

San migueeeeeeel, san migueeeeeeeel

G------------------------------------------|
D------------------------------------------|
A---------------2-2-2-2-2-2-2-3-3-3-3-3-3--|
E-0-0-0-0-0-0-0----------------------------|

"si, la hice remal"

G----------------------------------------------|
D----------------------------------------------|
A--------2-2--------------------3--3-3--3------|
E--0---0-----0--0-0---5--5-5--5-----------320--|

G-----------------------------------------------|
D-----------------------------------------------|
A------2-2-----------2--2-2--2------------------|
E-0--0------0--0-0--------------5--5-5--5--320--|

G--------------------------------------------------|
D--------------------------------------------------|
A------------------------------3-3-3-3-3-3-3-------|
E-0-0-0-0-0-0-0-0-5-5-5-5-5-5-----------------320--|

G-------------------------------------|
D-------------------------------------|
A--------2-2----2--2-2--2-------------|
E--0---0-----0-------------5--5-5--0--|

se repite "no, yo no estoy dañado no"


Coro x 4

final

G-------------------|
D-------------------| x 6
A------00-3---------|
E--0---------5-3-0--|

termina con la cuerda E al aire

G------|
D------|
A------|
E--0---|

Un saludo a todos los cabros y cabras de la capilla San Alfonso ¡chau!

            
            
Suggest correction
Creating personal tab
Creating personal tab
You can edit any tab online and save it as your Personal.

You can edit, replace or remove any tab part or add personal notes – all changes will be seen only by you.

Personal tabs can be accessed anytime from any device, even offline.
Learn more »
Give kudos to tab author, rate the tab!
1 2 3 4 5
comments
print report bad tab
guest
Wanna post a correction for this tab? Suggest correction