Oops, an error
Loading. Please wait.

Carta De Amor tab

version 2
version 2

Whole song

121 views 1 this week
no commentswrite comment
1 2 3 4 5
3 more votes to show rating
add to favorites
×
Save as Personal and add changes to this tab that will be seen only by you. Learn more ›
×
You can save this tab as Personal to edit and correct it or add notes. All changes will be seen only by you. Learn more »
launch autoscroll
font size
0
reset
how to read this tab
guitar tuner
edit
Autoscroll
slow
fast
+/-
esc
set tempo
stop
-Intro!

e|-------------------------------------------------|
B|---0-0---------0-0---------0---------------------|
G|-------2-2---2-----2-2---2---2~-2---------4---4--| 
D|-----------4-----------4----------4-2-0-2---2---2|
A|-------------------------------------------------|
E|-------------------------------------------------|

e|-------------------------------------------------|
B|---0-0---------0-0---------3~-3-3-3-2-2-2-2-0----|
G|-------2-2---2-----2-2---2--------------------2--|
D|-----------4-----------4-------------------------|
A|-------------------------------------------------|
E|-------------------------------------------------|

-Versos

Tormento de mi vida te quiero decir que no te guardo odio
Solo pienso en ti
Ya todo acabo
Lo nuestro murio
Por eso te mando esta carta de amor

No te basto con tu traicion
Soy una pantera a puro dolor
A donde tu estes
Te quiero decir
Esta es mi ultima carta de amor, amor

Coro:
-----
No por miel 
Dulce querer
Por eso a tu lado no quiero volver
Fuistes infiel
Se que lloraras
A LA maquita MI dulce clavel
A ver sentiras 
Tanto dolor
Te relleno esta carta de amor
Jugaste conmigo y te fuiste con el
Por eso con sangre te escribo mujer

[Intro otra vez]

Punto aparte, te sigo explicando
Todas mis noches llenas de llanto
Viendo tu foto en mi habitacion 
Y tu con el haciendo el amor
Yo estaba ciego
No me di cuenta la clase de bruja que me enamoro
Por eso carino
Con letras en sangre te escribo mi ultima carta de amor, mi amor

Coro

Sigo tratando de sacar el punteo para los versos, pero no estoy seguro de como va...
Si encontraron como va esta parte, porfa mandenmela! ;) 

e|-
B|-
G|-
D|-
A|-
E|-

-Solo: 1'44

e|--------------------------|--------------------------|
B|-0-0-0-0-3-2------3-5-8-7-|--0-0-0-0-3-2-----3-5-2-3-|
G|--------------------------|--------------------------|x4
D|-------------4--4---------|--------------4-4---------|
A|--------------------------|--------------------------|
E|--------------------------|--------------------------|

Outro:
------
Se que te olvidare
Y lloraras
Y cuando estes con el 
Me extrañaras

            
            
Suggest correction
Creating personal tab
Creating personal tab
You can edit any tab online and save it as your Personal.

You can edit, replace or remove any tab part or add personal notes – all changes will be seen only by you.

Personal tabs can be accessed anytime from any device, even offline.
Learn more »
Give kudos to tab author, rate the tab!
1 2 3 4 5
comments
print report bad tab
guest
Wanna post a correction for this tab? Suggest correction