Oops, an error
Loading. Please wait.

El Rock Del Mundial bass

140 views 1 this week
no commentswrite comment
1 2 3 4 5
3 more votes to show rating
add to favorites
×
Save as Personal and add changes to this tab that will be seen only by you. Learn more ›
×
You can save this tab as Personal to edit and correct it or add notes. All changes will be seen only by you. Learn more »
launch autoscroll
font size
0
reset
guitar tuner
edit
Autoscroll
slow
fast
+/-
esc
set tempo
stop
la cancion es muy facil ya que solo se basa en escalas,
tienen que escucharlas y adecuar los tiempos.

intro: primero la guitarra y despues el bajo
|---------------|x3
|---------------|
|---------------|
|--5--5---------|


aqui son todos los instrumentos juntos
|---------------------|x2
|--------4-5-4--------|
|----4-7-------7-5----|
|--5------------------|


en el mundial del...
|------------------------------------------4-5-4------------------------|
|-------4-5-4------------4-5-4---------4-7-------7-5---------4-5-4------|
|---4-7-------7-5----4-7-------7-5---5-------------------4-7-------7-5--|
|-5----------------5-----------------------------------5----------------|


celebrando nuestros triunfos...
|---------------------------------------|
|---6-9-6----4-7-4--------4-5-4---------|
|-7--------5----------4-7-------7-5-----|
|-------------------5-------------------|


nos invade la alegria...
|------------------------------------------4-5-4------------------------|
|-------4-5-4------------4-5-4---------4-7-------7-5---------4-5-4------|
|---4-7-------7-5----4-7-------7-5---5-------------------4-7-------7-5--|
|-5----------------5-----------------------------------5----------------|


y dispuestos a la lucha...
|---------------------------------------|
|---6-9-6----4-7-4--------4-5-4---------|
|-7--------5----------4-7-------7-5-----|
|-------------------5-------------------|


coro:
tomala, metete, remata...
|------------------------------------------4-5-4------------------------|
|-------4-5-4------------4-5-4---------4-7-------7-5---------4-5-4------|
|---4-7-------7-5----4-7-------7-5---5-------------------4-7-------7-5--|
|-5----------------5-----------------------------------5----------------|


un sonoro...
|---------------------------------------|
|---6-9-6----4-7-4--------4-5-4---------|
|-7--------5----------4-7-------7-5-----|
|-------------------5-------------------|


tomala, metete, remata...
|------------------------------------------4-5-4------------------------|
|-------4-5-4------------4-5-4---------4-7-------7-5---------4-5-4------|
|---4-7-------7-5----4-7-------7-5---5-------------------4-7-------7-5--|
|-5----------------5-----------------------------------5----------------|


un sonoro...
|---------------------------------------|
|---6-9-6----4-7-4--------4-5-4---------|
|-7--------5----------4-7-------7-5-----|
|-------------------5-------------------|


aqui viene el solo de la guitarra ¡ojo! el bajo hace lo mismo.
se repite todo esto 2 veces (lo que dura el punteo)
|------------------------------------------4-5-4------------------------|
|-------4-5-4------------4-5-4---------4-7-------7-5---------4-5-4------|
|---4-7-------7-5----4-7-------7-5---5-------------------4-7-------7-5--|
|-5----------------5-----------------------------------5----------------|


|---------------------------------------|
|---6-9-6----4-7-4--------4-5-4---------|
|-7--------5----------4-7-------7-5-----|
|-------------------5-------------------|


coro

tomala...
|------------------------------------------4-5-4------------------------|
|-------4-5-4------------4-5-4---------4-7-------7-5---------4-5-4------|
|---4-7-------7-5----4-7-------7-5---5-------------------4-7-------7-5--|
|-5----------------5-----------------------------------5----------------|


un sonoro...
|---------------------------------------|
|---6-9-6----4-7-4--------4-5-4---------|
|-7--------5----------4-7-------7-5-----|
|-------------------5-------------------|


estrofa
a los equipos extranjeros...
|------------------------------------------4-5-4------------------------|
|-------4-5-4------------4-5-4---------4-7-------7-5---------4-5-4------|
|---4-7-------7-5----4-7-------7-5---5-------------------4-7-------7-5--|
|-5----------------5-----------------------------------5----------------|


y aunque sea en la derrota...
|---------------------------------------|
|---6-9-6----4-7-4--------4-5-4---------|
|-7--------5----------4-7-------7-5-----|
|-------------------5-------------------|


coro y final  (fijense en los cambios al final)
tomala...
|------------------------------------------4-5-4------------------------|
|-------4-5-4------------4-5-4---------4-7-------7-5---------4-5-4------|
|---4-7-------7-5----4-7-------7-5---5-------------------4-7-------7-5--|
|-5----------------5-----------------------------------5----------------|


un sonoro...y bailemos rock and roll y bailemos rock and roll
|---------------------------------------------------------|
|---6-9-6----4-7-4--------4-5-4------------4-5-4----------|
|-7--------5----------4-7-------7-5----4-7-------7-5------|
|-------------------5----------------5--------------------|


|-----------------------------|-5-4-----5-4-----5-4--------|-------|
|---4-7-4----4-7-4----6-9-6---|-----7-4-----7-4-----7-4-7--|-------|
|-5--------5--------7-------7-|----------------------------|-------|
|-----------------------------|----------------------------|--5----|

no soltar el ultimo LA hasta que deje de sonar solo.


cualquier duda escriban a riquelmemakuc@

            
            
Suggest correction
Creating personal tab
Creating personal tab
You can edit any tab online and save it as your Personal.

You can edit, replace or remove any tab part or add personal notes – all changes will be seen only by you.

Personal tabs can be accessed anytime from any device, even offline.
Learn more »
Give kudos to tab author, rate the tab!
1 2 3 4 5
comments
print report bad tab
guest
Wanna post a correction for this tab? Suggest correction