Oops, an error
Loading. Please wait.

Bajo Mi Pulgar tab

58 views 1 this week
no commentswrite comment
1 2 3 4 5
3 more votes to show rating
add to favorites
×
Save as Personal and add changes to this tab that will be seen only by you. Learn more ›
×
You can save this tab as Personal to edit and correct it or add notes. All changes will be seen only by you. Learn more »
launch autoscroll
font size
0
reset
how to read this tab
guitar tuner
edit
Autoscroll
slow
fast
+/-
esc
set tempo
stop
1era viola

intro: F#m E  D

2da viola:

INTRO: x3

G ----------------|----------------|------0--2------------0--2-|
D ----------------|----------------|-0--4------0-0---0--4--0-0-|
A ----0--2--4-----|-------0--2-----|---------------------------|
E --2---------2-2-|--0--4------0-0-|---------------------------|

           F#m
      bajo mi pulgar
           E
     esta la chica
           D
      que una vez me pidio

                F#m
      bajo mi pulgar
           E
      esta la chica
                 D
      que me obligaba a ser asi


            A
      ahora si
           D                  B
      se viste de otra forma
                  F#m
      debajo de mi
                E
      ella esta
             D         A
      bajo mi pulgar


      bajo mi pulgar
      esta la perra
      que una vez me dejo
      bajo mi pulgar
      esta la chica
      que cambio
      su forma de ser

      y es asi ohyeaa!!
      ella ve lo que quiero
      abajo de mi
      ella esta
      bajo mi pulgar

      solo:
  ----------------------------------------------------------------|
  ----------------------------------------------------------------|
  ----0-3-5-6v6v--3-5v-53535353-6v-535353---0---------------------|
  ----------------------------------------------------------------|
  ----------------------------------------------------------------|
  ----------------------------------------------------------------|


  ---5-7-5--6v--6v---12--5757---12v-----55----5-6-7---------------|
  ---------------------------------------------------5-6-7--------|
  ----------------------------------------------------------------|
  ----------------------------------------------------------------|
  ----------------------------------------------------------------|
  ----------------------------------------------------------------|


     sigue la cancion igual..


termina en A

bueno espero que les sirva. estaba en "peticiones"
asi que bueno el que la pidio
aca la tiene.
esta muy buena la version asi
que bueno disfrutenla je..
el solo me lo saque de oido, esta mas
o menos pero suena copado.
es mi primera cancion que pongo en la pagina.
un saludo a toda la gente
que le gusta el Rnr´. aguante los ratones y los stones....
 "Que sea rock..."

            
            
Suggest correction
Creating personal tab
Creating personal tab
You can edit any tab online and save it as your Personal.

You can edit, replace or remove any tab part or add personal notes – all changes will be seen only by you.

Personal tabs can be accessed anytime from any device, even offline.
Learn more »
Give kudos to tab author, rate the tab!
1 2 3 4 5
comments
print report bad tab
guest
Wanna post a correction for this tab? Suggest correction