Oops, an error
Loading. Please wait.

Vicio tab

103 views 1 this week
no commentswrite comment
1 2 3 4 5
2 more votes to show rating
add to favorites
×
Save as Personal and add changes to this tab that will be seen only by you. Learn more ›
×
You can save this tab as Personal to edit and correct it or add notes. All changes will be seen only by you. Learn more »
launch autoscroll
font size
0
reset
how to read this tab
guitar tuner
edit
Autoscroll
slow
fast
+/-
esc
set tempo
stop
hola a todos! les mando esta cancion con los punteos y los acordes

Intro: (4 veces)E-----------------------------------
                B-----------------------------------
                G-----------------------------------
                D--2-2-4-2-5-2-4-2------------------
                A--0-0-0-0-0-0-0-0------------------
                E-----------------------------------
      A
1)Yo vivo en la otra calle hago rock and roll,
  no somos gente fina, tampoco lo peor.
       E                  E7
  El mundo no comprende lo que hacemos aqui,
   A
  pero cuando alguien viene, dificil no seguir.

El punteo de la estrofa 1) es:
         A                  E               E7
E-------------------------------------------------------
B-------------------------------------------------------
G-------------------------------------------------------
D--2-2-4-2-5-2-4-2--------------------------------------
A--0-0-0-0-0-0-0-0---2-2-4-4-2-2-4-4---2-2-5-5-2-2-5-5--
E--------------------0-0-0-0-0-0-0-0---0-0-0-0-0-0-0-0--


    A7
Es un vicio, vicio rock and roll,
           E7 (tres veces para abajo nomás)
vicio, para mi
        A7
Es un vicio, vicio para mi
              E7 (tres veces para abajo nomás)
vicio el rock and roll

       A5/6/7
2)Yo quiero que algun dia me vengas a buscar,
asi de paso un rato te quedas a escuchar
       E5/6         E5/7
Dos policias miran con ganas de pelear,
A5/6/7
pero cuando tocamos dificil es parar.

el punteo de la estrofa 2) es:

         A5/6/7            E5/6               E5/7
E-------------------------------------------------------
B-------------------------------------------------------
G-------------------------------------------------------
D--2-2-4-2-5-2-4-2--------------------------------------
A--0-0-0-0-0-0-0-0---2-2-4-4-2-2-4-4---2-2-5-5-2-2-5-5--
E--------------------0-0-0-0-0-0-0-0---0-0-0-0-0-0-0-0--

 A7
Es un vicio, vicio rock and roll,
           E7 (tres veces para abajo nomás)
vicio, para mi
        A7
Es un vicio, vicio para mi
              E7 (tres veces para abajo nomás)
vicio el rock and roll

espero que les haya gustado y bueno espero que la aprendan a tocar
porque esta muy buena la canción chau!

            
            
Suggest correction
Creating personal tab
Creating personal tab
You can edit any tab online and save it as your Personal.

You can edit, replace or remove any tab part or add personal notes – all changes will be seen only by you.

Personal tabs can be accessed anytime from any device, even offline.
Learn more »
Give kudos to tab author, rate the tab!
1 2 3 4 5
comments
print report bad tab
guest
Wanna post a correction for this tab? Suggest correction