Oops, an error
Loading. Please wait.

La Hiedra Venenosa tab

413 views 1 this week
no commentswrite comment
1 2 3 4 5
2 more votes to show rating
add to favorites
×
Save as Personal and add changes to this tab that will be seen only by you. Learn more ›
×
You can save this tab as Personal to edit and correct it or add notes. All changes will be seen only by you. Learn more »
launch autoscroll
font size
0
reset
how to read this tab
guitar tuner
edit
Autoscroll
slow
fast
+/-
esc
set tempo
stop
e|----------------|--7-7-5--5-7--|
B|----------------|--8-8-6--6-8--|
G|----------------|--7-7-5--5-7--|
D|--------0-2-0---|--------------|x2
A|----0h2---------|--------------|
E|--3-----------3-|--------------|


Pareces una rosa

e|----------------|--7-7-5--5-7--|
B|----------------|--8-8-6--6-8--|
G|----------------|--7-7-5--5-7--|
D|--------0-2-0---|--------------|
A|----0h2---------|--------------|
E|--3-----------3-|--------------|


bonita y olorosa

e|----------------|--7-7-5--5-7--|
B|----------------|--8-8-6--6-8--|
G|----------------|--7-7-5--5-7--|
D|--------0-2-0---|--------------|
A|----0h2---------|--------------|
E|--3-----------3-|--------------|


que atraes a los hombres

e|----------------|--7-7-5--5-7--|
B|----------------|--8-8-6--6-8--|
G|----------------|--7-7-5--5-7--|
D|--------0-2-0---|--------------|
A|----0h2---------|--------------|
E|--3-----------3-|--------------|


con tu gracia y fina frivolidad

e|-------------------------------|
B|-------------------------------|
G|-------------------------------|
D|-2-----------------------------|
A|-2-----------------------------|
E|-0---------------------------3-|


            Em
Pero nadie sabe  e e ee e
            Bm
pero nadie sabe  e e ee e
  Em
que eres solo una hiedra
D                     Em   D
ponsoñosa parecida a rosal


Tu eres tan hermosa

e|----------------|--7-7-5--5-7--|
B|----------------|--8-8-6--6-8--|
G|----------------|--7-7-5--5-7--|
D|--------0-2-0---|--------------|
A|----0h2---------|--------------|
E|--3-----------3-|--------------|

tan linda y primorosa

e|----------------|--7-7-5--5-7--|
B|----------------|--8-8-6--6-8--|
G|----------------|--7-7-5--5-7--|
D|--------0-2-0---|--------------|
A|----0h2---------|--------------|
E|--3-----------3-|--------------|

que embrujas a los hombres

e|----------------|--7-7-5--5-7--|
B|----------------|--8-8-6--6-8--|
G|----------------|--7-7-5--5-7--|
D|--------0-2-0---|--------------|
A|----0h2---------|--------------|
E|--3-----------3-|--------------|

con tu gracia y loca frivolidad

e|-------------------------------|
B|-------------------------------|
G|-------------------------------|
D|-2-----------------------------|
A|-2-----------------------------|
E|-0---------------------------3-|


            Em
Pero nadie sabe eeeeeee
            Bm
pero nadie sabe eeeeeee
   Em                     D
que eres mala y de corazón perverso
                     Em         D
por que finges no lo se eee e e e


C
Te burlas de los hombres
te encanta verlos tristes
e|-------------------------------|
B|-------------------------------|
G|--------2----------2-----------|
D|---2--5---5---2--5---5---------|
A|-3----------3------------------|
E|-------------------------------|

G
te ufana su derrota y padecer
e|-------------------------------|
B|-------------------------------|
G|-------------------------------|
D|--------2----------2-----------|
A|---2--5---5---2--5---5---------|
E|-3----------3------------------|

C
tu alma envenenada
serpiente venenosa
e|-------------------------------|
B|-------------------------------|
G|--------2----------2-----------|
D|---2--5---5---2--5---5---------|
A|-3----------3------------------|
E|-------------------------------|

D
no tienes u forma de mujeer


Tu eres tan hermosa

e|----------------|--7-7-5--5-7--|
B|----------------|--8-8-6--6-8--|
G|----------------|--7-7-5--5-7--|
D|--------0-2-0---|--------------|
A|----0h2---------|--------------|
E|--3-----------3-|--------------|

tan linda y primorosa

e|----------------|--7-7-5--5-7--|
B|----------------|--8-8-6--6-8--|
G|----------------|--7-7-5--5-7--|
D|--------0-2-0---|--------------|
A|----0h2---------|--------------|
E|--3-----------3-|--------------|

que embrujas a los hombres

e|----------------|--7-7-5--5-7--|
B|----------------|--8-8-6--6-8--|
G|----------------|--7-7-5--5-7--|
D|--------0-2-0---|--------------|
A|----0h2---------|--------------|
E|--3-----------3-|--------------|

con tu gracia y loca frivolidad

e|-------------------------------|
B|-------------------------------|
G|-------------------------------|
D|-2-----------------------------|
A|-2-----------------------------|
E|-0---------------------------3-|


            Em
Pero nadie sabe eeeeeee
            Bm
pero nadie sabe eeeeeee
   Em                     D
que eres mala y de corazón perverso
                     Em         D
por que finges no lo se eee e e e


C
Te burlas de los hombres
te encanta verlos tristes
e|-------------------------------|
B|-------------------------------|
G|--------2----------2-----------|
D|---2--5---5---2--5---5---------|
A|-3----------3------------------|
E|-------------------------------|

G
te ufana su derrota y padecer
e|-------------------------------|
B|-------------------------------|
G|-------------------------------|
D|--------2----------2-----------|
A|---2--5---5---2--5---5---------|
E|-3----------3------------------|

C
tu alma envenenada
serpiente venenosa
e|-------------------------------|
B|-------------------------------|
G|--------2----------2-----------|
D|---2--5---5---2--5---5---------|
A|-3----------3------------------|
E|-------------------------------|

D
no tienes u forma de mujeer


Tu eres tan hermosa

e|----------------|--7-7-5--5-7--|
B|----------------|--8-8-6--6-8--|
G|----------------|--7-7-5--5-7--|
D|--------0-2-0---|--------------|
A|----0h2---------|--------------|
E|--3-----------3-|--------------|
tan linda y primorosa

e|----------------|--7-7-5--5-7--|
B|----------------|--8-8-6--6-8--|
G|----------------|--7-7-5--5-7--|
D|--------0-2-0---|--------------|
A|----0h2---------|--------------|
E|--3-----------3-|--------------|
que atraes a los hombres eh

e|----------------|--7-7-5--5-7--|
B|----------------|--8-8-6--6-8--|
G|----------------|--7-7-5--5-7--|
D|--------0-2-0---|--------------|
A|----0h2---------|--------------|
E|--3-----------3-|--------------|
con tu gracia y fina frivolidad
e|-------------------------------|
B|-------------------------------|
G|-------------------------------|
D|-2-----------------------------|
A|-2-----------------------------|
E|-0---------------------------3-|


            Em
Pero nadie sabe ee e e e
            Bm
pero nadie sabe  ee e ee
            Em
Pero nadie sabe e e e ee
            Bm
pero nadie sabe  ee e e e

            
            
Suggest correction
Creating personal tab
Creating personal tab
You can edit any tab online and save it as your Personal.

You can edit, replace or remove any tab part or add personal notes – all changes will be seen only by you.

Personal tabs can be accessed anytime from any device, even offline.
Learn more »
Give kudos to tab author, rate the tab!
1 2 3 4 5
comments
print report bad tab
guest
Wanna post a correction for this tab? Suggest correction