Oops, an error
Loading. Please wait.

Asesinos Por Naturaleza bass

17 views 1 this week
no commentswrite comment
1 2 3 4 5
3 more votes to show rating
add to favorites
×
Save as Personal and add changes to this tab that will be seen only by you. Learn more ›
×
You can save this tab as Personal to edit and correct it or add notes. All changes will be seen only by you. Learn more »
launch autoscroll
font size
0
reset
guitar tuner
edit
Autoscroll
slow
fast
+/-
esc
set tempo
stop
Asesinos por Naturaleza Por Retorcidos
Traducida a Bass tabs por wanshan: wanshan@	
Esta canción pertenece al Lp Ya es Hora!!!
 

Intro Versos:

Verso 1 ? X3 (incluido intro)
G|-----------------------------------------------------------------|
D|-----------------------------------------------------------------|
A|---------4-44-44?5-55-55?7-77-77--------4-44-44?5-55-55?---------|
E|--5?55-55------------------------5-55-55----------------0-00-00--|

Verso 2 ? X1
G|-----------------------------------------------------------------|
D|-----------------------------------------------------------------|
A|------------------5555?777---------------------5555--------------|
E|---55--44--22--00----------------55--44--22--00-----000----------|

Coro ? X2
G|--------------------------------------------------------------------|
D|---------------------------6-7-9------------------------------------|
A|---------4-44-44?5-55-55?7--------------4-44-44?5-55-55?-7-5-4-2----|
E|--5?55-55------------------------5-55-55--------------------------5-|

* Solo de Guitarra (igual a verso 1)? X1 (incluido solo de guitarra)

Verso 3 Variante del verso 1 luego del ?Solo de guitarra? ? X2
G|-------------6------7-----9-------------6-----7------9-----------|
D|-----7------6-6----7-7---9--9----7-----6-6---7-7----9-9----------|
A|----7-7---4------5?----7----?---7-7--4-----5------7--------------|
E|--5?---------------------------5---------------------------------|

Versos 2 y coro se repiten para terminar de manera asesina.
Mas archivos de tablaturas en a ~ 

            
            
Suggest correction
Creating personal tab
Creating personal tab
You can edit any tab online and save it as your Personal.

You can edit, replace or remove any tab part or add personal notes – all changes will be seen only by you.

Personal tabs can be accessed anytime from any device, even offline.
Learn more »
Give kudos to tab author, rate the tab!
1 2 3 4 5
comments
print report bad tab
guest
Wanna post a correction for this tab? Suggest correction