Oops, an error
Loading. Please wait.

Playa Solitaria tab

1,365 views 1 this week
no commentswrite comment
1 2 3 4 5
3 more votes to show rating
add to favorites
×
Save as Personal and add changes to this tab that will be seen only by you. Learn more ›
×
You can save this tab as Personal to edit and correct it or add notes. All changes will be seen only by you. Learn more »
launch autoscroll
font size
0
reset
how to read this tab
guitar tuner
backing track
0:00
0:00
edit
Autoscroll
slow
fast
+/-
esc
set tempo
stop
Esta es una hermosa melodía romántica compuesta por el gran
Oscar Arriagada.

La versión de Los Tr3s en el disco homónimo sigue la misma
estructura.
Incluyan una introducción con los siguientes acordes: G - A# - G - F

Para la guitarra de acompañamiento (la que toca los acordes) el
arpegio es muy sencillo.

Por ejemplo:

  G                             D
|-----------1----------------|-----------2--------------------|
|--------0-----0-------------|--------3-----3-----------------|
|-----0-----------0----------|-----2-----------2--------------|
|----------------------------|--0-----------------------------|
|----------------------------|--------------------------------|
|-3--------------------------|--------------------------------|

Y así por el estilo.


Que la disfruten!


  G
+++++++++++++++++++++Harmónicos naturales+++++++++++++++++++++++
|-------------<12>-----------|-------------<12>----------------|
|---------<12>-----<12>------|---------<12>-----<12>-----------|
|-----<12>--------------<12>-|-----<12>--------------<12>------|
|-<12>-----------------------|-<12>-----------------------<12>-|
|----------------------------|---------------------------------|
|----------------------------|---------------------------------|


          Bm      C            G   Cm       G
           ~~     ~
|-9h10--------------|---8----------------------|
|------12-----------|-----8h10h12--10-12-13-12-|
|---------11--7---9-|-9------------------------|
|---------------9---|--------------10-12-14-12-|
|-------------------|--------------------------|
|-------------------|--------------------------|


          Bm      C            G   Cm       G
           ~~     ~
|-9h10--------------|---8----------------------|
|------12-----------|-----8h10h12--10-12-13-12-|
|---------11--7---9-|-9------------------------|
|---------------9---|--------------10-12-14-12-|
|-------------------|--------------------------|
|-------------------|--------------------------|


        D                G
         ~~
|----------|-------10h12-10-|------------|
|----------|----13----------|--12--------|
|-------14-|-14-------------|-----12-----|
|-12-12----|----------------|--------12--|
|----------|----------------|------------|
|----------|----------------|------------|


        D                   G            Bm     C
         ~~                               ~~    ~
|----------|-------12-12h14----|-9h10-------------|
|----------|----13----------15-|------12----------|
|-------14-|-14----------------|---------11-7---9-|
|-12-12----|-------------------|--------------9---|
|----------|-------------------|------------------|
|----------|-------------------|------------------|


           G  Cm       G            Bm     C
                                     ~~    ~
|---8---------------------|-9h10--------------|
|-----8h10h12-10-12-13-12-|------12-----------|
|-9-----------------------|---------11-7---9--|
|-------------10-12-14-12-|--------------9----|
|-------------------------|-------------------|
|-------------------------|-------------------|


           G         C       G
|-8----------|-------8-10-12-10----------|
|---8-8h10p8-|-10S12------------12-------|
|------------|---------------------12----|
|------------|------------------------12-|
|------------|---------------------------|
|------------|---------------------------|


        D              G                     D
         ~~                                   ~~
|----------------10h12-10-|----------|-----------|
|-------------13----------|-12-------|-----------|
|-------14-14-------------|----12----|-------14--|
|-12-12-------------------|-------12-|-12-12-----|
|-------------------------|----------|-----------|
|-------------------------|----------|-----------|


                 G          B             C
                             ~~
|-------12-12h14----|----------|----11-14-15-12-12-|
|----13----------15-|-12-12-12-|-12----------------|
|-14----------------|----------|-------------------|
|-------------------|----------|-------------------|
|-------------------|----------|-------------------|
|-------------------|----------|-------------------|


        A            D                  Bm     C
         ~~                              ~~    ~
|----------|----9-12-10-------|-9h10--------------|
|-10-10-10-|-10---------13-10-|------12-----------|
|----------|------------------|---------11-7---9--|
|----------|------------------|--------------9----|
|----------|------------------|-------------------|
|----------|------------------|-------------------|


           G  Cm       G            Bm     C
                                     ~~    ~
|---8---------------------|-9h10-------------|
|-----8h10h12-10-12-13-12-|------12----------|
|-9-----------------------|---------11-7---9-|
|-------------10-12-14-12-|--------------9---|
|-------------------------|------------------|
|-------------------------|------------------|


           G         C       G
|-8----------|-------8-10-12S15------------<12>--*|
|---8-8h10p8-|-10S12------------------<12>-------*|
|------------|-------------------<12>------------*|
|------------|-----------------------------------*|
|------------|-----------------------------------*|
|------------|-----------------------------------*|

            
            
Suggest correction
Creating personal tab
Creating personal tab
You can edit any tab online and save it as your Personal.

You can edit, replace or remove any tab part or add personal notes – all changes will be seen only by you.

Personal tabs can be accessed anytime from any device, even offline.
Learn more »
Give kudos to tab author, rate the tab!
1 2 3 4 5
comments
print report bad tab
guest
Wanna post a correction for this tab? Suggest correction