Oops, an error
Loading. Please wait.

Bone Heads No bass

25 views 1 this week
no commentswrite comment
1 2 3 4 5
3 more votes to show rating
add to favorites
×
Save as Personal and add changes to this tab that will be seen only by you. Learn more ›
×
You can save this tab as Personal to edit and correct it or add notes. All changes will be seen only by you. Learn more »
launch autoscroll
font size
0
reset
guitar tuner
edit
Autoscroll
slow
fast
+/-
esc
set tempo
stop
Hay les dejo esta tablature para bajo espèro y les sirva solo sigan
las notas de la guitarra y veran que tal queda esa rolita esta al
100% bien checenla cualquier duda o sugerencia mandenme un mail a
skaeduardoska 

Bone heads  - Los rude boys

Intro
G]-3---------3---------------------------------
D]---2-3-5-----2-3-5?5-3-----------------------Contra los bone heads
A]------------------------------------------
E]-----------------------------------------

Bome heads bone heads bone heads bone heads bone heads bone heads 
bone heads bone heads no
                                  x2
G]--3-------3---------------------------------------------------------
D]----2-5-2---2-5-2---2-5-5--2-5-5---3--------3--------5--------5-----
A]-----------------------4------4------2-5-2---2-5-2-----4-7 4---4-7-4
E]--------------------------------------------------------------------


  Ya no quiero mas reproches?..
G]--33333333-------------------------------------
D]-----------22222222-33333333-55555555----------
A]-------------------------------------
E]-----------------------------------------


  Es un organismo que crece y no tiene perdon?..
G]-------------------------------------------
D]?22222222 33333333 2222222 333 555---------
A]------------------------------------------
E]----------------------------------------

  Aquí aquí aquí aquí siempre todo nos sale mal??..
G]--3-------3---------------------------------------------------------
D]----2-5-2---2-5-2---2-5-5--2-5-5---3--------3--------5--------5-----
A]-----------------------4------4------2-5-2---2-5-2-----4-7 4---4-7-4
E]--------------------------------------------------------------------

Y asi sucesivamente solo igan la rola y siganse lo demas pero asi va
toda camaras banda chido skaeduardoska 

            
            
Suggest correction
Creating personal tab
Creating personal tab
You can edit any tab online and save it as your Personal.

You can edit, replace or remove any tab part or add personal notes – all changes will be seen only by you.

Personal tabs can be accessed anytime from any device, even offline.
Learn more »
Give kudos to tab author, rate the tab!
1 2 3 4 5
comments
print report bad tab
guest
Wanna post a correction for this tab? Suggest correction