Oops, an error
Loading. Please wait.

Libertad tab

80 views 1 this week
no commentswrite comment
1 2 3 4 5
3 more votes to show rating
add to favorites
×
Save as Personal and add changes to this tab that will be seen only by you. Learn more ›
×
You can save this tab as Personal to edit and correct it or add notes. All changes will be seen only by you. Learn more »
launch autoscroll
font size
0
reset
how to read this tab
guitar tuner
edit
Autoscroll
slow
fast
+/-
esc
set tempo
stop
La guitarra tiene afinación en Re


 G              Bm          Am             D
-------0---------------------------------------2p0---------
---------0h2p0-----5--------------3----------0-----2p0-----
-----2---------------4h6--------4---4----------------------
---2--------------6------6----4-------4p3------------------
-0--------------4-----------2------------------------------
-------------------------------------------0---------------

 G              Bm          Am           D
---------0-------------------------------5-----------------
-------2---2-------5--------------3------5-----------------
-----2-------2-------4h6--------4---4p2--6-----------------
---2--------------6------6----4----------5-----------------
-0--------------4-----------2------------7-----------------
-----------------------------------------7-----------------


G              Bm          Am             D
-------0---------------------------------------2p0---------
---------0h2p0-----5--------------3----------0-----2p0-----
-----2---------------4h6--------4---4----------------------
---2--------------6------6----4-------4p3------------------
-0--------------4-----------2------------------------------
-------------------------------------------0---------------
Libertad, encanto de mi vida, sin ti el trabajo de los días


 G              Bm          Am             D
-------0---------------------------------------5-4p0-------
---------0h2p0-----5--------------3----------0-------------
-----2---------------4h6--------4---4----------------------
---2--------------6------6----4-------4p3------------------
-0--------------4-----------2------------------------------
-------------------------------------------0---------------
Más que un tormento es una larga muerte

 G              Bm          Am             D
-------0---------------------------------------2p0---------
---------0h2p0-----5--------------3----------0-----2p0-----
-----2---------------4h6--------4---4----------------------
---2--------------6------6----4-------4p3------------------
-0--------------4-----------2------------------------------
-------------------------------------------0---------------
Libertad, soledad, que más da, palabras tan largas y


 G              Bm          Am             D
-------0---------------------------------------5-4p0-------
---------0h2p0-----5--------------3----------0-------------
-----2---------------4h6--------4---4----------------------
---2--------------6------6----4-------4p3------------------
-0--------------4-----------2------------------------------
-------------------------------------------0---------------
hermosas, que arrastró el viento a este fin de siglo,
tiempo de mentiras

G              Bm          Am             D
-------0---------------------------------------2p0---------
---------0h2p0-----5--------------3----------0-----2p0-----
-----2---------------4h6--------4---4----------------------
---2--------------6------6----4-------4p3------------------
-0--------------4-----------2------------------------------
-------------------------------------------0---------------
Libertad, besos y abrazos de humo, promesas de mujeres

G              Bm          Am             D
-------0---------------------------------------5-4p0-------
---------0h2p0-----5--------------3----------0-------------
-----2---------------4h6--------4---4----------------------
---2--------------6------6----4-------4p3------------------
-0--------------4-----------2------------------------------
-------------------------------------------0---------------
noches de vasos llenos, luna de ojos rojos, bares de barras
vacías

G              Bm          Am             D
-------0---------------------------------------2p0---------
---------0h2p0-----5--------------3----------0-----2p0-----
-----2---------------4h6--------4---4----------------------
---2--------------6------6----4-------4p3------------------
-0--------------4-----------2------------------------------
-------------------------------------------0---------------
Libertad, dejas un rastro de tristeza, ahí por donde pasas con tu

G              Bm          Am             D
-------0---------------------------------------5-4p0-------
---------0h2p0-----5--------------3----------0-------------
-----2---------------4h6--------4---4----------------------
---2--------------6------6----4-------4p3------------------
-0--------------4-----------2------------------------------
-------------------------------------------0---------------
nombre tan blanco sin saber donde te lleva y a donde vas


Em7                       Bm7
Te persiguen las cadenas, las esposas tus amigas
Am7                                                  Em7
Palabras, silencio, miradas, y tú, sola, sola y olvidada
F#
Y tan pequeñita


Las estrofas restantes van con los acordes de las primeras,
pero sin arpegiar, rasgueándolos:


Libertad,
Divino tesoro que dijo el poeta
O el hombre solo que es lo mismo.

Libertad,
Victima del naufragio
Que es el tiempo, la vida, noche perdida en el mar
Que no encuentras el fondo ni la orilla.

Libertad,
Sepulcro de todos los sueños
Que piensas que regala el cielo
Pero que hay que robar al infierno
Para llegar a esta cárcel de silencio y pesadillas.

Libertad,
Puerta abierta que dejas pasar
Felicidad, cuentos de hadas,
quimeras, prenda dorada,
sombra, espejismo, nada.


(De nuevo el estribillo)

Te persiguen las cadenas
Las esposas sus amigas
Palabras, silencio, miradas
Y tu sola, sola y olvidada
Y tan pequeñita.

(Más estrofas)

Libertad,
Barco de vela que vuela,
Vagabundo de las estrellas,
Guitarra que por fin suena,
Esperanza verdadera,
Trapo negro es mi bandera.

Libertad
Anciana abandonada,
Mujer violada, niña.
Donde estas cancion soñada?
Por todas cantada
Y por todos escrita.

Libertad
Tantos muertos en tu nombre
Que ni Dios puede contar
Tantas vidas perdidas,
Pero nunca jamás, nunca
Por ser defendida.

Libertad
Tantos años buscada
Y ahora que todo termina
Sé que toda la vida has viajado a mi lado
MI pequeñita.

(Estribillo)
Te persiguen las cadenas
Las esposas sus amigas
Palabras, silencio, miradas
Y tu sola, sola y olvidada
Y tan pequeñita.

(Estrofas)
Libertad,
Barco de vela que vuela,
Vagabundo de las estrellas,
Guitarra que por fin suena,
Esperanza verdadera,
Trapo negro es mi bandera.

Libertad
Anciana abandonada,
Mujer violada, niña.
Donde estas cancion soñada?
Por todas cantada
Y por todos escrita.

Libertad
Tantos muertos en tu nombre
Que ni Dios puede contar
Tantas vidas perdidas,
Pero nunca jamás, nunca
Por ser defendida.

Libertad
Tantos años buscada
Y ahora que todo termina
Sé que toda la vida has viajado a mi lado
MI pequeñita.

(Estribillo)
Te persiguen las cadenas
Las esposas sus amigas
Palabras, silencio, miradas
Y tu sola, sola y abandonada
Y tan pequeñita.


Solo de guitarra acústica:
----------------------------------------------9--9--9--9---
--------8s10-10-9---9b-7-------------------10-10-10-10-10--
------9-----------9------9h11-9----------9-----------------
-7-10---------------------------12-11-12-------------------
-----------------------------------------------------------
-----------------------------------------------------------

-11-----------9-5------------------------------------------
-13-9-9-9-9-9---7-------10-13p12-10------------------------
-------------------9-12-------------12-9---------------9---
-----------------------------------------12-10-9-10h12-----
-----------------------------------------------------------
-----------------------------------------------------------

-----------------------------------------------------------
--10-10-10-9-9b-9-------10p9-10p9--------------10-10-10----
------------------11-11---------------------------------11-
----------------------------------11-9-------9-------------
---------------------------------------12-12---------------
-----------------------------------------------------------

-----------------------------------------------------------
-------------13-14-15-17-13h14----------------14-15-17-14--
-------------------------------14-14-13h14-14--------------
-11s12-12s14-----------------------------------------------
-----------------------------------------------------------
-----------------------------------------------------------

-------9--9--9--9--9--9--7-7-7-7-9-------12-14-14s15-14-12-
-------10-10-10-10-10-10-9-9-9-9-10-7-12-------------------
----14-----------------------------------------------------
-14--------------------------------------------------------
-----------------------------------------------------------
-----------------------------------------------------------

----9--9--9--9--11-7-7-7-7-9-------------------------------
-10-10-10-10-10-13-9-9-9-9-10-7-9-12-9---------------------
---------------------------------------9----11-------------
-----------------------------------------11----------------
-----------------------------------------------------------
-----------------------------------------------------------
Durante el solo, la guitarra rítmica sigue los acordes de la estrofa


(Estribillo cambiado)
Y arrastrarás las cadenas
Y las leyes sus amigas
Palabras, silencio, miradas,
Y tu seguiras olvidada
Y cada vez, cada vez, mas pequeñita

            
            
Suggest correction
Creating personal tab
Creating personal tab
You can edit any tab online and save it as your Personal.

You can edit, replace or remove any tab part or add personal notes – all changes will be seen only by you.

Personal tabs can be accessed anytime from any device, even offline.
Learn more »
Give kudos to tab author, rate the tab!
1 2 3 4 5
comments
print report bad tab
guest
Wanna post a correction for this tab? Suggest correction