Oops, an error
Loading. Please wait.

Un Amor Violento bass

version 2
version 2

Whole song

Interactive

1,350 views 1 this week
no commentswrite comment
1 2 3 4 5
3 more votes to show rating
add to favorites
×
Save as Personal and add changes to this tab that will be seen only by you. Learn more ›
×
You can save this tab as Personal to edit and correct it or add notes. All changes will be seen only by you. Learn more »
launch autoscroll
font size
0
reset
guitar tuner
edit
Autoscroll
slow
fast
+/-
esc
set tempo
stop
Author
++++++++++++++++++++++++++++++
| Los Tres- Un Amor Violento |
++++++++++++++++++++++++++++++


"El amor tendrá que esperar un buen rato para descansar de tu y de mi..."


Tuning: EADG


Intro
1.
G|------------------------------------------------------------------------------|
D|---------2~-----4-2~-----------2~------4-2~-----------2~-----4-2--------------|
A|-0~--4~-----2~-------2-0~--4~------2~-------2-0~--4~-----2~------2~-0x--------|--x2
E|------------------------------------------------------------------------------|

Verse
"Cuando por primera vez te ví..."
2.
G|-----------------------------------------------------------------------------------------|
D|---------2~-----4-2~-----------2~------4-2~-----------2~-----4-2-----------2~-----4-2~---|
A|-0~--4~-----2~-------2-0~--4~------2~-------2-0~--4~-----2~------2~-0--4~-----2~-------2-|--x2
E|-----------------------------------------------------------------------------------------|

Chorus
"Gastaré toda mi vida..."
3.
G|-------------------------------------------------------------------------------------|
D|----------------------------------4~--4~--4~-----------------------------------------|
A|-4~--4~--4~------------4~--4~--4~------------4~--4~--4------------22222222-2222222-2-|
E|------------2~--2~--2~---------------------------------2~--2~--2~--------------------|

Outro
"Mucho mas, mucho mas..."
4.
G|------------------------------------------------------------------------------|
D|---------2~-----4-2~-----------2~------4-2~-----------2~-----4-2--------------|
A|-0~--4~-----2~-------2-0~--4~------2~-------2-0~--4~-----2~------2~-0x--------|
E|------------------------------------------------------------------------------|

Verse
"El amor tendrá que esperar..."
5.
G|-----------------------------------------------------------------------------------------|
D|---------2~-----4-2~-----------2~------4-2~-----------2~-----4-2-----------2~-----4-2~---|
A|-0~--4~-----2~-------2-0~--4~------2~-------2-0~--4~-----2~------2~-0--4~-----2~-------2-|--x2
E|-----------------------------------------------------------------------------------------|

Chorus
"Gastaré toda mi vida..."
6.
G|------------------------------------------------------------------------------------------|
D|----------------------------------4~--2~--0~----------------------------------------------|
A|-4~--4~--4~------------4~--4~--4~------------4~--4~--4------------2-2-2-0-0-0-------------|
E|------------2~--2~--2~---------------------------------2~--2~--2~-------------4-4-4-2-2-2-|

"Y mas..."
7.
G|-------------------------|
D|-------------------------|
A|-2-2-2-0-0-0-------------|
E|-------------4-4-4-2-2-2-|

Bridge
8.
G|-----------------------------------------------------------------------------------------|
D|---------2~-----4-2~-----------2~------4-2~-----------2~-----4-2-----------2~-----4-2~---|
A|-0~--4~-----2~-------2-0~--4~------2~-------2-0~--4~-----2~------2~-0--4~-----2~-------2-|--x2
E|-----------------------------------------------------------------------------------------|

Chorus
"Gastaré toda mi vida..."
9.
G|------------------------------------------------------------------------------------------|
D|----------------------------------4~--2~--0~----------------------------------------------|
A|-4~--4~--4~------------4~--4~--4~------------4~--4~--4------------2-2-2-0-0-0-------------|
E|------------2~--2~--2~---------------------------------2~--2~--2~-------------4-4-4-2-2-2-|

"Y mas..."
10.
G|---------------------------------------------------------------------------|
D|---------------------------------------------------------------------------|
A|-2-2-2-0-0-0-------------2-2-2-0-0-0---------------------------------0-0-2-|
E|-------------4-4-4-2-2-2-------------4-4-4-2-2-2-0-0-0-0-0-0x--------------|

Outro
"Porque un amor violento nos deslumbró..."
11.
G|-----------------------------------------------------------------------------------------|
D|---------2~-----4-2~-----------2~------4-2~-----------2~-----4-2-----------2~-----4-2~---|
A|-0~--4~-----2~-------2-0~--4~------2~-------2-0~--4~-----2~------2~-0--4~-----2~-------2-|
E|-----------------------------------------------------------------------------------------|

12.
G|--------------------------------|
D|-----------2~--0~---------------|
A|-0x----------------4~-0x--------|
E|--------------------------------|

Please rate thanks!!!


Lyrics:

Cuando por primera vez te ví
supe que el cielo era para tí y para mí
Y para tí y para mí

Nunca más podré dormir
Nunca más podré soñar
con nadie que no seas tú

Gastaré toda mi vida
en comprar la tuya
gastaré toda mi vida
y más...

El amor tendrá que esperar un buen rato
para descansar de tú y de mí
de tú y de mí

Porque un amor violento nos deslumbró
un amor violento nos fulminó



+++++++++++++++++++++++++++++++++
| Raileff                       |
| Underground__Dora@Hotmail.Com |
+++++++++++++++++++++++++++++++++

            
            
Suggest correction
Creating personal tab
Creating personal tab
You can edit any tab online and save it as your Personal.

You can edit, replace or remove any tab part or add personal notes – all changes will be seen only by you.

Personal tabs can be accessed anytime from any device, even offline.
Learn more »
Give kudos to tab author, rate the tab!
1 2 3 4 5
comments
print report bad tab
guest
You may want to rate the tab now too:
select rating
Wanna post a correction for this tab? Suggest correction