Oops, an error
Loading. Please wait.

Tu Me Haces Falta tab

75 views 1 this week
no commentswrite comment
1 2 3 4 5
3 more votes to show rating
add to favorites
×
Save as Personal and add changes to this tab that will be seen only by you. Learn more ›
×
You can save this tab as Personal to edit and correct it or add notes. All changes will be seen only by you. Learn more »
launch autoscroll
font size
0
reset
how to read this tab
guitar tuner
edit
Autoscroll
slow
fast
+/-
esc
set tempo
stop
INTRO (un solo rasgueo de cada nota)
F-C-A#

                                F
|-------------------------------------1-------1-
|-----------------------------------1-------1---
|---------------------------------2-------2-----
|-------------------------------3-------3-------
|-----------------------------------------------
|-----------------------------------------------
 Sin ti los minutos me parecen años
                 C                           Dm
|------1-------1-------0-------1-------0-----1---
|----1-------1-------1-------1-------1-------3---
|--2-------2-------0-------0-------0---------2---
|3-------3-------2-------2-------2-----------0---
|------------------------------------------------
|------------------------------------------------
     Como te extraño..               quiero verte

(Aquí vienen los Vasquez)

A#                         F
No puedo vivir tú me haces falta
            C
Tú me haces falta mi amor
            Dm
Tú me haces falta

(Aquí vienen los Vasquez)

A#                         F
No puedo vivir tú me haces falta
            C
Tú me haces falta mi amor
            Dm            A#(Un solo rasgueo)
Tú me haces falta

                                F
|-------------------------------------1-------------
|-----------------------------------1---1-----------
|---------------------------------2-------2---------
|-------------------------------3-------------------
|---------------------------------------------------
|---------------------------------------------------
 Sin ti los minutos me parecen años
                 C                          Dm
|------1---------------0------- ---0--------------1-----------1-----
|----1---1-----------1---1-------1---1----------3---3-------3---3---
|--2-------2-------0-------0---0-------2------2-------2---2-------2-
|3---------------2-----------2--------------0-----------0-----------
|-------------------------------------------------------------------
|-------------------------------------------------------------------
     Como te extraño..               quiero verte
 A#                                 F
|------1-----------1----------------------1---------
|----3---3-------3---3------------------1---1-------
|--3-------3---3-------3--------------2-------2-----
|3-----------3----------------------3---------------
|---------------------------------------------------
|---------------------------------------------------
       Siento tu perfume aquí en mi cama
                 C                          Dm
|------1---------------0------- ---0--------------1-----------1-----
|----1---1-----------1---1-------1---1----------3---3-------3---3---
|--2-------2-------0-------0---0-------2------2-------2---2-------2-
|3---------------2-----------2--------------0-----------0-----------
|-------------------------------------------------------------------
|-------------------------------------------------------------------
     Como se extraña..               quiero verte

Dm(1 vez) A#(2 veces)      F
No puedo vivir tú me haces falta
            C
Tú me haces falta mi amor
            Dm
Tú me haces falta

(Aquí vienen los Vasquez)

A#                         F
No puedo vivir tú me haces falta
            C
Tú me haces falta mi amor
            Dm
Tú me haces falta

A#
Falta, tú me haces falta
              F
Tú sabes mi reina te quiero como a ninguna
                    C
Contigo yo vería la luna
                                           Dm
A un viaje de placer te llevaría por las estrellas
A#
Verte, mira verte, mira niña quiero verte
F
Pienso todo el día como le hago para pa tenerte
C                                         Dm
Tú me haces falta sin ti no puedo estar

(Aquí vienen los Vasquez)

 A#                                       F
|1----------------------------------------------1-------------
|3--------------------------------------------1---1-----------
|3------------------------------------------2-------2---------
|3----------------------------------------3-------------------
|1------------------------------------------------------------
|-------------------------------------------------------------
      Pasa y pasa el tiempo y de ti no sé nada
               C                          Dm
|------1-------------0-----------0--------------1-----------1-----
|----1---1---------1---1-------1---1----------3---3-------3---3---
|--2-------2-----0-------0---0-------2------2-------2---2-------2-
|3-------------2-----------2--------------0-----------0-----------
|-----------------------------------------------------------------
|-----------------------------------------------------------------
     Ni una llamada..              que me acerque
 A#                            F
|------1-----------1-----------------1---------
|----3---3-------3---3-------------1---1-------
|--3-------3---3-------3---------2-------2-----
|3-----------3-----------------3---------------
|----------------------------------------------
|----------------------------------------------
 Ay solo una sonrisa tuya bastaría
                 C                          Dm
|------1---------------0------- ---0--------------1-----------1-----
|----1---1-----------1---1-------1---1----------3---3-------3---3---
|--2-------2-------0-------0---0-------2------2-------2---2-------2-
|3---------------2-----------2--------------0-----------0-----------
|-------------------------------------------------------------------
|-------------------------------------------------------------------
     Para curar..                    esta herida

         A#                           F
Y te fallé, porque otros labios yo besé
                             C         Dm
Fui un imbecil yo me equivoqué, amor vuelve
    A#                           F
Y cai, no pensaba que era tan feliz,
                          C         Dm
Como un tonto todo lo perdí, amor vuelve

Dm(1 vez) A#(2 veces)      F
No puedo vivir tú me haces falta
            C
Tú me haces falta mi amor
            Dm
Tú me haces falta

A#                         F
No puedo vivir tú me haces falta
            C
Tú me haces falta mi amor
            Dm
Tú me haces falta

(Aquí vienen los Vasquez)

A#
No puedo vivir, ya no puedo vivir
F
No puedo vivir, ya no, ya no puedo vivir
            C
Tú me haces falta mi amor (Ay tú me haces falta)
           Dm
Tú me haces falta (Ay tú me haces falta)
A#
No puedo vivir, ya no puedo vivir
F
No puedo vivir
            C(1 vez)
Tú me haces falta mi amor
            Dm(1 vez)
Tú me haces falta

______________________________________________________________________

Mi primera transcripción.. espero les guste :)

            
            
Suggest correction
Creating personal tab
Creating personal tab
You can edit any tab online and save it as your Personal.

You can edit, replace or remove any tab part or add personal notes – all changes will be seen only by you.

Personal tabs can be accessed anytime from any device, even offline.
Learn more »
Give kudos to tab author, rate the tab!
1 2 3 4 5
comments
print report bad tab
guest
Wanna post a correction for this tab? Suggest correction