Oops, an error
Loading. Please wait.

Claudia Trampa chords

34 views 1 this week
no commentswrite comment
1 2 3 4 5
3 more votes to show rating
add to favorites
×
Save as Personal and add changes to this tab that will be seen only by you. Learn more ›
×
You can save this tab as Personal to edit and correct it or add notes. All changes will be seen only by you. Learn more »
launch autoscroll
font size
0
reset
transpose
0
reset
display chords
guitar tuner
edit
Autoscroll
slow
fast
+/-
esc
set tempo
stop
Strumming
There is no strumming pattern for this song yet. and get +5 IQ
Claudia Trampa
Del disco Sacate Todo
Tablatura realizada por ViLLaNo
Propiedad exclusiva de 

Intro

1----------------------------------------------------------------
2----------------------------------------------------------------
3---------------------5-5-5-5-5-5--7--5---7-7-7-7-7-7--9--7------
4-5-5-5-5-5-5--7--5---5-5-5-5-5-5--7--5---7-7-7-7-7-7--9--7------
5-5-5-5-5-5-5--7--5----------------------------------------------
6----------------------------------------------------------------

1----------------------------------
2----------------------------------
3----------------------------------
4----------------------------------
5----1--3--1-----------------------
6--3----------3--------------------

Riff #1
1---6-6-6-6-6-6---8--6-----8-8-8-8-8-8---10--8----10-10-10-10-10-10--12--10--
2---6-6-6-6-6-6---8--6-----8-8-8-8-8-8---10--8----10-10-10-10-10-10--12--10--
3----------------------------------------------------------------------------
4----------------------------------------------------------------------------
5----------------------------------------------------------------------------
6----------------------------------------------------------------------------

1----------------------------------
2--------11---13--11---------------
3----12---------------12-----------
4----------------------------------
5----------------------------------
6----------------------------------


(Toca los acordes como base de rock 'n roll)

       G                   C
Estás re-loca, loca, loca, Claudia

          D             G
Estás re-loca, loca otra vez

G                        C
Estás re-loca, loca, loca, Claudia

D                         G
Estás re-loca ya no sé que hacer...

G
Te fuiste de casa

C
Te hiciste la rata

   D
Y me dejaste en banda

G
Chau, chau nena

C
Te cabe la fiesta

D               G
Andate a dormir afuera


       G                   C
Estás re-loca, loca, loca, Claudia

          D             G
Estás re-loca, loca otra vez

G                        C
Estás re-loca, loca, loca, Claudia

D                         G


Estás re-loca ya no sé que hacer...
Te fuiste de tema
te hiciste la estrella
y me dejaste hecho mierda

Chau, chau nena
te cabe la fiesta
andate a dormir afuera

G                     D
Estás re-loca, loca Claudia

G                       D
Tu vida entera es una trampa

[esta partitura la saque de la pagina vieja de villanos,
y la quiero poner por que estoy arto de entrar en atame
y no encontrar nada de Villanos, por que no puede ser...
es la mejor banda del mundo.]
                                FEde

            
            
Suggest correction
Creating personal tab
Creating personal tab
You can edit any tab online and save it as your Personal.

You can edit, replace or remove any tab part or add personal notes – all changes will be seen only by you.

Personal tabs can be accessed anytime from any device, even offline.
Learn more »
Give kudos to tab author, rate the tab!
1 2 3 4 5
comments
print report bad tab
guest
Wanna post a correction for this tab? Suggest correction