Oops, an error
Loading. Please wait.

Manos Vacias bass

18 views 1 this week
no commentswrite comment
1 2 3 4 5
3 more votes to show rating
add to favorites
×
Save as Personal and add changes to this tab that will be seen only by you. Learn more ›
×
You can save this tab as Personal to edit and correct it or add notes. All changes will be seen only by you. Learn more »
launch autoscroll
font size
0
reset
guitar tuner
edit
Autoscroll
slow
fast
+/-
esc
set tempo
stop
Estuve hablando 	   		    
con mi sombra en la pared		
no se si creerle casi siempre miente	   
Tocaste fondo y no volviste a creer		      Riff 1    
Estas tan vulnerable perdiste mucha sangre


Todo es igual cuando no hay con quien hablar    
Algo se quebro de tu mano se escapo
cometiste el viejo error de hacer caso al corazon     Riff 2
te volvieron a engañar, te volvieron a gritar

y no hay magia que llene el alma o el corazon
manos vacias, manos vacias                            Riff 3


Estuve hablando 
con mi sombra en la pared
me conto tu sueño que un dia se durmieron
adentro tuyo hay voces que te hacen pensar
los baches en el alma no se curan con nada            Riff 1


Todo es igual cuando no hay con quien hablar    
Algo se quebro de tu mano se escapo
cometiste el viejo error de hacer caso al corazon     Riff 2
te volvieron a engañar, te volvieron a gritar

y no hay magia que llene el alma o el corazon
manos vacias, manos vacias                            Riff 3

   
Solo                                                  Riff 1


Todo es igual cuando no hay con quien hablar    
Algo se quebro de tu mano se escapo
cometiste el viejo error de hacer caso al corazon     Riff 2
te volvieron a engañar, te volvieron a gritar

y no hay magia que llene el alma o el corazon
manos vacias, manos vacias                            Riff 3


Riff 1 
G-----------------------------------------    
D-----------------------------------------
A-------2----3----3-----------------------
E--3--------------------------------------     

G-----------------------------------------    
D-----------------------------------------
A-------2----3----5-----------------------
E--3--------------------------------------    


Riff 2
G-----------------------------------------    
D-----------------------------------------
A-------5----3----5-----------------------
E--3--------------------------------------     X 4


Riff 3
G-----------------------------------------    
D-----------------------------------------
A--2----2----3---------3------------------
E-----------------3---------3-------------


Aguante Huachipato Rock Band
Dudas o comntarios a tin_cho87@

            
            
Suggest correction
Creating personal tab
Creating personal tab
You can edit any tab online and save it as your Personal.

You can edit, replace or remove any tab part or add personal notes – all changes will be seen only by you.

Personal tabs can be accessed anytime from any device, even offline.
Learn more »
Give kudos to tab author, rate the tab!
1 2 3 4 5
comments
print report bad tab
guest
Wanna post a correction for this tab? Suggest correction