Oops, an error
Loading. Please wait.

Pendeja tab

25 views 1 this week
no commentswrite comment
1 2 3 4 5
3 more votes to show rating
add to favorites
×
Save as Personal and add changes to this tab that will be seen only by you. Learn more ›
×
You can save this tab as Personal to edit and correct it or add notes. All changes will be seen only by you. Learn more »
launch autoscroll
font size
0
reset
how to read this tab
guitar tuner
edit
Autoscroll
slow
fast
+/-
esc
set tempo
stop
Hola a todos, acá está la tab completa de este tema...
Una aclaración sobre la notación: los acordes con quintas deben tocarse
como acordes de rock'n roll.
En los estribillos son acordes de quinta con la octava agregada...
Por ejemplo:

    G5          G
e|------------------|
B|------------------|
G|------------------|
D|--------------5---|
A|--5-5-7-5-----5---|
E|--3-3-3-3-----3---|

Bueno, dudas y correcciones a mi mail...
Saludos a todos y aguante Villanos!


'Quiero una mujer de verdad... no una hija que educar...'


=================================================================

Pendeja
(Villanos)


Intro

         G5              G5                              G5
e|------------------------------------------------------------|
B|------------------------------------------------------------|
G|------------------------------------------------------------|
D|-----------------------------------------------3-3----------|
A|--2/5--5-5-7-5-7----2/5-5-5-7-5-7--2/5-5-5-7-7-----7-7-5----|
E|--0h3--3-3-3-3-3----0h3-3-3-3-3-3----------------------3----|


           G5
Mi cerebro estás quemando,
                C5    D5
todo el tiempo internando
           G5
Escuchando mis llamados,
         C5    D5
y mis cosas revisando

            (*)                      (**)
   Necesito una mujer... que no tenga que aprender

   (*)                          (**)
e|---------------------------------------------------------------------|
B|-6-6-6-5-5-5-7--7-8-8-7---------6-6-6-5-5-5-7--7-8-8-8-8-8-8-7-------|
G|-5-5-5-5-5-5-7--7-7-7-7---------5-5-5-5-5-5-7--7-7-7-7-7-7-7-7-------|
D|-7-7-7-5-5-5-7--7-9-9-7---------7-7-7-5-5-5-7--7-9-9-9-9-9-9-7-------|
A|---------------------------------------------------------------------|
E|---------------------------------------------------------------------|


             G5
Tu cenicero dio en mi cara,
             C5     D5
ya mostraste la hilacha
                  G5
Mejor me voy con mis amigos,
               C5     D5
antes que te cague a tiros

             (*)                      (**)
   Necesito una mujer... que me sepa entender

    [*]                          [**]      (Acá cambia con respecto al anterior)
e|---------------------------------------------------------------------|
B|-6-6-6-5-5-5-7--7-8-8-7---------6-6-6-5-5-5-7--7-8-8-8-7-8-7~~-------|
G|-5-5-5-5-5-5-7--7-7-7-7---------5-5-5-5-5-5-7--7-7-7-7-7-7-7~~-------|
D|-7-7-7-5-5-5-7--7-9-9-7---------7-7-7-5-5-5-7--7-9-9-9-7-9-7~~-------|
A|---------------------------------------------------------------------|
E|---------------------------------------------------------------------|


G                   C                   D
Pendeja, pendeja... devolveme mis pertenencias
G                   C                   D
Pendeja, pendeja... no soy tu libro de quejas


*Repetir Intro*


              G5
Me bajaste un par de dientes,
            C5      D5
me dejaste inconciente
             G5
Me cansé de tus sospechas,
              C5       D5
y tus escenas de histeria

               (*)                      (**)
   Quiero una mujer de verdad... no una hija que educar, no!

   [*]                           [**]             (Igual al anterior)
e|---------------------------------------------------------------------|
B|-6-6-6-5-5-5-7--7-8-8-7---------6-6-6-5-5-5-7--7-8-8-8-7-8-7~~-------|
G|-5-5-5-5-5-5-7--7-7-7-7---------5-5-5-5-5-5-7--7-7-7-7-7-7-7~~-------|
D|-7-7-7-5-5-5-7--7-9-9-7---------7-7-7-5-5-5-7--7-9-9-9-7-9-7~~-------|
A|---------------------------------------------------------------------|
E|---------------------------------------------------------------------|

G                   C                   D
Pendeja, pendeja... devolveme mis pertenencias
G                   C                   D
Pendeja, pendeja... no soy tu libro de quejas
G                   C                   D
Pendeja, pendeja... me estás haciendo mierda
G                   C                   D
Pendeja, pendeja... y el mundo a nadie espera...


         (*)                (**)
   Otra vez vuelan cosas... otra vez más historias

   (*)                           (**)
e|---------------------------------------------------------------------|
B|-6-6-6-5-5-5-7--7-8-8-7---------6-6-6-5-5-5-7--7-8-8-8-7-8-7~~-------|
G|-5-5-5-5-5-5-7--7-7-7-7---------5-5-5-5-5-5-7--7-7-7-7-7-7-7~~-------|
D|-7-7-7-5-5-5-7--7-9-9-7---------7-7-7-5-5-5-7--7-9-9-9-7-9-7~~-------|
A|---------------------------------------------------------------------|
E|---------------------------------------------------------------------|

    (*)                E            D          G
   Esta vez... me di cuenta que tu amor me enferma

   (*)
e|----------------------------|
B|-6-6-6-5-5-5----------------|
G|-5-5-5-5-5-5----------------|
D|-7-7-7-5-5-5----------------|
A|----------------------------|
E|----------------------------|


SOLO

BASE: G5 C5 D5 x2 (Como Versos)

e|--------------------------------------------------------|
B|--3---3-------------------------------------------------|
G|--4h5p4--4-4-4-4-4-4-4-4-----------------------4--------|
D|-------------------------7-5----5-7-5--------5---7-5----|
A|------------------------------7-------7--5-7------------|
E|--------------------------------------------------------|


e|--------------------------------------7-10-10-10---------------|
B|-8-8---8-8-10-8-10-8----------8-----8------------10b12r10p8----|
G|-7-7---7-------------9-9--7-9---7-9----------------------------|
D|---------------------------------------------------------------|
A|---------------------------------------------------------------|
E|---------------------------------------------------------------|


Guitarra 1 (Intro - Viene de los Acordes)

         G5              G5                              G5
e|-----------------------------------------------------------------|
B|-----------------------------------------------------------------|
G|-----------------------------------------------------------------|
D|-----------------------------------------------3-3---------------|
A|--2/5--5-5-7-5-7----2/5-5-5-7-5-7--2/5-5-5-7-7-----7-7-5---------|
E|--0h3--3-3-3-3-3----0h3-3-3-3-3-3----------------------3---------|

Guitarra 2 (Punteos - Viene del Solo)

e|-----------------------------------------------------------------|
B|--8~~~~-------------8~~~~----------5/8-8-8-10-10-11-11-10-10-8---|
G|-----------------------------------6/7-7-7--9--9-10-10--9--9-7---|
D|-----------------------------------------------------------------|
A|-----------------------------------------------------------------|
E|-----------------------------------------------------------------|


              G5
Te presento a mi abogado,
              C5              D5
ya no quiero ser un hombre golpeado
           G5
Esquivando ceniceros,
                 C5    D5
mejor te vas con el sodero

               (*)                         (**)
   Quiero una mujer de verdad... no una hija que educar, no, no, no!

   (*)                           (**)
e|---------------------------------------------------------------------|
B|-6-6-6-5-5-5-7--7-8-8-7---------6-6-6-5-5-5-7--7-8-8-8-7-8-7~~-------|
G|-5-5-5-5-5-5-7--7-7-7-7---------5-5-5-5-5-5-7--7-7-7-7-7-7-7~~-------|
D|-7-7-7-5-5-5-7--7-9-9-7---------7-7-7-5-5-5-7--7-9-9-9-7-9-7~~-------|
A|---------------------------------------------------------------------|
E|---------------------------------------------------------------------|


G                   C                   D
Pendeja, pendeja... devolveme mis pertenencias
G                   C                   D
Pendeja, pendeja... no soy tu libro de quejas
G                   C                   D
Pendeja, pendeja... devolveme mis pertenencias
G                   C                   D
Pendeja, pendeja... no soy tu libro de quejas


G                            C      D
Pendeja, pendeja...
                        e|--3/8-8-8--10-10-8-8-7-7-5-5-------|
                        B|--3/8-8-8--10-10-8-8-7-7-5-5-------|
                        G|-----------------------------------|
                        D|-----------------------------------|
                        A|-----------------------------------|
                        E|-----------------------------------|

Pendeja, pendeja...
Pendeja, pendeja...


G                            C      D
Pendeja, pendeja...
                        e|--3/8-8-8--10-10-8-8-7-7-5-5-3~~---|  *********
                        B|--3/8-8-8--10-10-8-8-7-7-5-5-3~~---|  * Final *
                        G|-----------------------------------|  *********
                        D|-----------------------------------|
                        A|-----------------------------------|
                        E|-----------------------------------|

            
            
Suggest correction
Creating personal tab
Creating personal tab
You can edit any tab online and save it as your Personal.

You can edit, replace or remove any tab part or add personal notes – all changes will be seen only by you.

Personal tabs can be accessed anytime from any device, even offline.
Learn more »
Give kudos to tab author, rate the tab!
1 2 3 4 5
comments
print report bad tab
guest
Wanna post a correction for this tab? Suggest correction