Oops, an error
Loading. Please wait.

Sale Caro chords

40 views 1 this week
no commentswrite comment
1 2 3 4 5
3 more votes to show rating
add to favorites
×
Save as Personal and add changes to this tab that will be seen only by you. Learn more ›
×
You can save this tab as Personal to edit and correct it or add notes. All changes will be seen only by you. Learn more »
launch autoscroll
font size
0
reset
transpose
0
reset
display chords
guitar tuner
edit
Autoscroll
slow
fast
+/-
esc
set tempo
stop
Strumming
There is no strumming pattern for this song yet. and get +5 IQ
Riff #1
1-------------------------------
2-------------------------------
3--5--3--5-----5-5--3-5-----3--- 
4--5--3--5--5--5-5--3-5--5--3--- 
5-----------5------------5------
6-------------------------------
repite 3 veces y en la cuarta hace lo mismo pero agrega al final esto

1----------------------------
2----------------------------
3--5-5--3--5-----5--3--5-----
4--5-5--3--5--5--5--3--5--5-- Riff #3
5-------------5-----------5--
6----------------------------

1------------------
2------------------
3--5--3-------3----
4--5--3----5--3----  Riff #2
5----------5-------   
6------------------

1----------------------------
2----------------------------
3----------------------------
4--3-3---5-3--6--3--5-6------ Riff #4
5--3-3---5-3--6--3--5-6------
6----------------------------

1----------------------------
2----------------------------
3-----5-5---3-----5-5--------
4--5--5-5---3--5--5-5-------- Riff #5
5--5-----------5------------- 
6----------------------------


C         Bbm  
Sale Caro, andar bailando
C                Riff#2
Bailando con el diablo
C
Que feo es salir 
Bbm              Riff #2
en la tapa de los diarios
 
C               Bbm
No hay remedio, vamos derecho
C             Riff #2
Derecho al infierno
C
Y dame, dame, dame
      Bbm
Dame más de tu veneno

Riff #3
Toma, toma no puede parar

C                          Bbm
Y toma uno, toma dos, toma tres
Riff #3
Y se toma el cuarto
 
G             Riff #4
Sale caro ... vender el alma al diablo

Sale caro, firmar contrato

Contrato con el diablo
Que feo es quedar escrachado en todos lados
Toma, toma no puede parar

Y toma uno, toma dos, toma tres
Y se toma el cuarto

Sale caro ... vender el alma al diablo

1----------------------------------------------------------------------------
2----------------------------------------------------------------------------
3----5-5--3-----3--5----5-5--3--3-------- 5-5--3-----3--5--5--3--------------
4--5-5-5--3--5--3--5--5-5-5--3--3--5----5-5-5--3--5--3--5--5--3--5--3--5-----
5--5---------5--------5------------5----5---------5--------------5--3--5-----
6----------------------------------------------------------------------------
 

Riff #5
No puede parar

Riff #5
No puede parar

G    C
No puede
G    C
No puede
G    C
No puede
 
C
Y toma, y toma, y toma, y toma ...
Y toma uno, toma dos, toma tres 
Y se toma el cuarto

Sale Caro ... vender el alma al diablo

1----------------------------
2----------------------------
3--5-5--3--5-----5-5-3--5-5--
4--5-5--3--5--5--5-5-3--5-5-- 
5-------------5--------------
6----------------------------

Nota:los acordes son esos pero con que toques las cuerdas
que apoya el anular y el dedo chico en cada acorde suena 
igual y se te hace mas facil para los riffs

            
            
Suggest correction
Creating personal tab
Creating personal tab
You can edit any tab online and save it as your Personal.

You can edit, replace or remove any tab part or add personal notes – all changes will be seen only by you.

Personal tabs can be accessed anytime from any device, even offline.
Learn more »
Give kudos to tab author, rate the tab!
1 2 3 4 5
comments
print report bad tab
guest
Wanna post a correction for this tab? Suggest correction