Oops, an error
Loading. Please wait.

Bombas A Londres tab

122 views 3 this week
no commentswrite comment
1 2 3 4 5
3 more votes to show rating
add to favorites
×
Save as Personal and add changes to this tab that will be seen only by you. Learn more ›
×
You can save this tab as Personal to edit and correct it or add notes. All changes will be seen only by you. Learn more »
launch autoscroll
font size
0
reset
how to read this tab
guitar tuner
edit
Autoscroll
slow
fast
+/-
esc
set tempo
stop
Los violadores - Bombas a Londres

E|-----------------------------------------|
B|------2---0-2-----2---------3-333333-5---|
G|----2-2-x-2-2-2-2-2-2--2--2-2-222222-4---|
D|----2---x-----2-2---2--2--2-0-000000-2---|
A|----0-----------0------0--0--------------|
E|->>>-------------------------------------|

E|---------------------------------------------------------|
B|---------------------------------------------------------|
G|---6---4-6-4-----6-----4---6------7---67-9-9----6--------|
D|-7---7-------7-------7---7---7-----------9----------9-7--|
A|-x-------------0---0-----------55---5--------77---7------|
E|-5-------------------------------------------------------|
PM               .   .           ..   .        ..   .

E|-----------------------------------------------------------|
B|-----------------------------------------------------------|
G|-----6---4-6-4-----6-----4---6------7---67-9-9----6--------|
D|-------7-------7-------7---7---7-----------9----------9-7--|
A|-00--------------0---0-----------55---5--------77---7------|
E|-----------------------------------------------------------|
PM ..              .   .           ..   .        ..   .

E|-------------------------------------------------------|
B|-------------------------------------------------------|
G|----6---4-6-x---6---4---6------6---4-6---9-7-6-7-6-----|
D|-77---7-------7---7---7---7-77---7-----7---------------|
A|-------------------------------------------------------|
E|-------------------------------------------------------|
PM ..   .                     ..         .

E|---------------------------------------------------|
B|--------------------------------------------7------|
G|----6---4-6-x---6-x---4---6---7-7-6-7---9-9-----9--|
D|-77---7-------7-----7---7---7-x-------9-------9----|
A|------------------------------5-------7------------|
E|---------------------------------------------------|
PM ..

A5                      D5
Algunas veces, yo quisiera perder
E5
cierta sensibilidad
E|---5---5-------5-------5---5-------4-5-4-----|
B|-5---5---5---5---5---5---5---5-----5-5-5-----|
G|-6---------6-6-----6-7---------7-4-----------|
D|---------------------------------------------|
A|---------------------------------------------|
E|---------------------------------------------|

LA ultima fiesta
yo la recordaré,
porque muchos no volvieron de allá.

E|---5---5-------5-------5---5-------4-5-4-----|
B|-5---5---5---5---5---5---5---5-----5-5-5-----|
G|-6---------6-6-----6-7---------7-4-------5---|
D|---------------------------------------------|
A|---------------------------------------------|
E|---------------------------------------------|
Fantasmas y dudas en un lugar del sur
hay fantasmas en el cielo...

E|[-9-999-7-7----7-]-10-101010-9-9----9-999-7-7----7-|
B|[-----------10---]---------------10-----------10---|
G|[----------------]---------------------------------|
D|------x2-------------------------------------------|
A|---------------------------------------------------|
E|---------------------------------------------------|
E|[-9-999---------]-10-101010-9-10-/---|
B|[-------10-10---]--------------------|
G|[-------------9-]------------------9-|
D|------x2---------------------------9-|
A|-----------------------------------7-|
E|-------------------------------------|
E|[-12-121212-10-9----9----10-9----]-12-121212-10-9-10-9----9-/|
B|[----------------10--10-------10-]---------------------12----|
G|[-----------------9----9-------9-]---------------------------|
D|--------------x3---------------------------------------------|
A|-------------------------------------------------------------|
E|-------------------------------------------------------------|

Si estamos lejos, o muy cerca
yo no lo sé
E|---5---5-------5-------5---5-------4-5-4-4---|
B|-5---5---5---5---5---5---5---5-----5-5-5-----|
G|-6---------6-6-----6-7---------7-4-----------|
D|---------------------------------------------|
A|---------------------------------------------|
E|---------------------------------------------|
la solución [solution] debe ser la verdad,
sólo que nadie la puede encontrar.

E|---5---5-------5-------5---5-------4-5-4-----|
B|-5---5---5---5---5---5---5---5-----5-5-5-----|
G|-6---------6-6-----6-7---------7-4-----------|
D|---------------------------------------------|
A|---------------------------------------------|
E|---------------------------------------------|
Latidos... de muerte,
en un lugar del sur,
hay fantasmas,
en el cielo.
E|[-9-999-7-7----7-]-10-101010-9-9----9-999-7-7----7-|
B|[-----------10---]---------------10-----------10---|
G|[----------------]---------------------------------|
D|------x2-------------------------------------------|
A|---------------------------------------------------|
E|---------------------------------------------------|

E|[-9-999---------]-10-101010-9-10-/-----------------|
B|[-------10-10---]----------------------------------|
G|[-------------9-]-----------------[-9-9x-]---------|
D|------x2--------------------------[-9-9x-]-x4------|
A|----------------------------------[-7-7x-]---------|
E|---------------------------------------------------|

E|---------------333-5-3-5-3-------------------------|
B|---------------333-5-3-5-3-------------------------|
G|--------------------------------------------4-6-4-7|
D|-7-7-----7---7-------------7-7-----7---7-77-------7|
A|-7-7-777-7-7-7-------------7-7-777-7-7-7-----------|
E|-5-5-555-5-5-5-------------5-5-555-5-5-5-----------|
PM     ...   .                   ...   .

E|---------------------------------12-10-9-10-9----9-----|
B|----------------------------------------------12---12--|
G|-777-6-4-----------------4-6-4-7-----------------------|
D|---------7-7----7---7-77-------7-----------------------|
A|---------7-7-77-7-7-7----------------------------------|
E|-----------5-55-5-5-5----------------------------------|
PM             ..   .

E|-------9----------9-10-9----------9-10-9--------------|
B|-10-12---12-10-12--------12-10-12--------12-10-12-10--|
G|------------------------------------------------------|
D|------------------------------------------------------|
A|------------------------------------------------------|
E|------------------------------------------------------|

E|-------9----------9-10-9----------9-10-12-10-9-10-9/--|
B|-10-12---12-10-12--------12-10-12---------------------|
G|------------------------------------------------------|
D|------------------------------------------------------|
A|------------------------------------------------------|
E|------------------------------------------------------|

E|-------------------------------------------------------|
B|-------------------------------------------------------|
G|----6---4-6-x---6---4---6------6---4-6---9-7-6-7-6-4---|
D|-77---7-------7---7---7---7-77---7-----7-------------7-|
A|-------------------------------------------------------|
E|-------------------------------------------------------|
PM ..   .                     ..         .


E|---------------------------------------------------|
B|--------------------------------------------7------|
G|----6---4-6-x---6-x---4---6---7-7-6-7---9-9-----9--|
D|-77---7-------7-----7---7---7-x-------9-------9----|
A|------------------------------5-------7------------|
E|---------------------------------------------------|
PM ..


E|---5---5-------5-------5---5-------4-5-4-----|
B|-5---5---5---5---5---5---5---5-----5-5-5-----|
G|-6---------6-6-----6-7---------7-4-----------|
D|---------------------------------------------| x2
A|---------------------------------------------|
E|---------------------------------------------|

Fantasmas y dudas...
en un lugar del sur...
Hay fantasmas...
Listen to me now !!!

E|[-9-999-7-7----7-]-10-101010-9-9----9-999-7-7----7-|
B|[-----------10---]---------------10-----------10---|
G|[----------------]---------------------------------|
D|------x2-------------------------------------------|
A|---------------------------------------------------|
E|---------------------------------------------------|

E|[-9-999---------]-10-101010-9-10-9-999-7-797-------|
B|[-------10-10---]----------------------------------|
G|[-------------9-]----------------------------------|
D|------x2-------------------------------------------|
A|---------------------------------------------------|
E|---------------------------------------------------|

E|[-9-999-7-]-9-999-7-7----9-999-7-7----7--10-101010-9-9-10/|
B|[---------]-----------10-----------10---------------------|
G|[---------]-----------------------------------------------|
D|-----x4---------------------------------------------------|
A|----------------------------------------------------------|
E|----------------------------------------------------------|

E5-A5

E|-----------------------------------------------------|
B|-----------------------------------------------------|
G|---6---4-6-4---6---4-6-7-7-6-7-9-7-6--7-6-4----------|
D|-7---7-------7---7-----x--------------------7--------|
A|-7---------------------5--------------------x--------|
E|--------------------------------------------5--------|


ufff me canse de copiar jaja
no esta perfecta, es lo que puede escuchar
hay algunas partes ke no suenan igual pero
esta bastante bien
en algunas parte de los punteos
hay ke dejar apoyados los dedos para ke suene igual
saludos!!

            
            
Suggest correction
Creating personal tab
Creating personal tab
You can edit any tab online and save it as your Personal.

You can edit, replace or remove any tab part or add personal notes – all changes will be seen only by you.

Personal tabs can be accessed anytime from any device, even offline.
Learn more »
Give kudos to tab author, rate the tab!
1 2 3 4 5
comments
print report bad tab
guest
Wanna post a correction for this tab? Suggest correction