Oops, an error
Loading. Please wait.

La Caida De La Luna tab

31 views 1 this week
no commentswrite comment
1 2 3 4 5
3 more votes to show rating
add to favorites
×
Save as Personal and add changes to this tab that will be seen only by you. Learn more ›
×
You can save this tab as Personal to edit and correct it or add notes. All changes will be seen only by you. Learn more »
launch autoscroll
font size
0
reset
how to read this tab
guitar tuner
edit
Autoscroll
slow
fast
+/-
esc
set tempo
stop
INTRO: RE

  RE
1-------------------------------------------------------------------------
2--7-8-10-10(12)-10-8-7n8n7-5-7---7-8-10-10(12)-10-8-7-3-3-5-7-3-3-5-7-3--
3----------------------------------------------------------------------2--
4-------------------------------------------------------------------------
5-------------------------------------------------------------------------
6-------------------------------------------------------------------------


1---------17--------14-15-17-17(19)-17-15-14n15n14----14-14-15-17-17(19)--
2--17(19)----17(19)--------------------------------17---------------------
3-------------------------------------------------------------------------
4-------------------------------------------------------------------------
5-------------------------------------------------------------------------
6-------------------------------------------------------------------------

            SOL
1--17-15-14-----------14----------15-15----------------------
2-----------15--15-17----15-15-17-------17-17---12--10-10----
3------------------------------------------------------------
4------------------------------------------------------------
5------------------------------------------------------------
6------------------------------------------------------------


RE
El puede ir hasta alla

y en la esquina vos no estas
  SOL
adonde estas?
RE
al cielo apunte

y la luna vi caer
        SOL
la luna vi partir vi partir    1--14--10------
                               2----------10--
                               3--------------
                               4--------------
                               5--------------
                               6--------------

SI        LA                 SOL
Ya no hay mas sombras en la claridad   1--3--3-3--0-3-5--
                                       2--3--3-3--0-3-5--
                                       3-----------------
                                       4-----------------
                                       5-----------------
                                       6-----------------


SI        LA             SOL          LA
Toda las sombras estan presas en la oscuridad
         RE
1,2,3 va

       RE
    1------------------------------------------------
    2--7-8-10-10(12)-10-8-7n8n7-5-7---7-8-10-10(12)--
    3------------------------------------------------
    4------------------------------------------------
    5------------------------------------------------
    6------------------------------------------------

             SOL
    1------------------------------------------------
    2--10-8-7-3--3-5-7-3--3-5-7-7-5-5--5/12-10-10----
    3------------------------------------------------
    4------------------------------------------------
    5------------------------------------------------
    6------------------------------------------------


RE
el hombre lobo donde ira

sin su (?¡¿) a donde ira
 SOL
donde ira?   1--17(19)(19)17-10--10-12-14-10--
             2--------------------------------
             3--------------------------------
             4--------------------------------
             5--------------------------------
             6--------------------------------


RE
Julio VErne no la vio

asi no la imagino    1--14-10---------
                     2---------10-----
                     3----------------
                     4----------------
                     5----------------
                     6----------------

 SOL
huyo lejos
             1-17(19)(19)17-10--10-12-14-10--
             2-------------------------------
             3-------------------------------
             4-------------------------------
             5-------------------------------
             6-------------------------------


SI        LA                 SOL
Ya no hay mas sombras en la claridad   1--3--3-3--0-3-5--
                                       2--3--3-3--0-3-5--
                                       3-----------------
                                       4-----------------
                                       5-----------------
                                       6-----------------

SI        LA          SOL          LA
Toda las sombras pertenecen a la oscuridad

   RE                                             SOL
1--------5-----7-----5-----------5-----7-----5--------------------------17-
2--7-5-7---7-5---7-5---7-5-7-5-7---7-5---7-5---7-5-7-8-7-5-3-5-7-5-7-5--17-
3--------------------------------------------------------------------------
4--------------------------------------------------------------------------
5--------------------------------------------------------------------------
6--------------------------------------------------------------------------


LA#      DO        RE   1---------------
Ya no podemos soportar  2---------------
                        3--7-7-7-5-5----
                        4------------7--
                        5---------------
                        6---------------
LA#    SOL     LA
si la luna donde esta?


RE
la luna vi partir

la luna donde esta?
        SOL
la luna vi caer

LA vi caer
RE
la luna vi partir

la luna donde esta
        SOL
la luna vi caer

LA vi caer


SI        LA                 SOL
Ya no hay mas sombras en la claridad   1--3--3-3--0-3-5--
                                       2--3--3-3--0-3-5--
                                       3-----------------
                                       4-----------------
                                       5-----------------
                                       6-----------------


SI        LA          SOL          LA
Toda las sombras pertenecen a la oscuridad


RE

1-------------------------------------------------------------------------
2--7-8-10-10(12)-10-8-7n8n7-5-7---7-8-10-10(12)-10-8-7-3-3-5-7-3-3-5-7-3--
3----------------------------------------------------------------------2--
4-------------------------------------------------------------------------
5-------------------------------------------------------------------------
6-------------------------------------------------------------------------


AUANTE LOS VIOLADORESSSS

            
            
Suggest correction
Creating personal tab
Creating personal tab
You can edit any tab online and save it as your Personal.

You can edit, replace or remove any tab part or add personal notes – all changes will be seen only by you.

Personal tabs can be accessed anytime from any device, even offline.
Learn more »
Give kudos to tab author, rate the tab!
1 2 3 4 5
comments
print report bad tab
guest
Wanna post a correction for this tab? Suggest correction