Oops, an error
Loading. Please wait.

Oficial Y Opositor chords

13 views 1 this week
no commentswrite comment
1 2 3 4 5
3 more votes to show rating
add to favorites
×
Save as Personal and add changes to this tab that will be seen only by you. Learn more ›
×
You can save this tab as Personal to edit and correct it or add notes. All changes will be seen only by you. Learn more »
launch autoscroll
font size
0
reset
transpose
0
reset
display chords
guitar tuner
edit
Autoscroll
slow
fast
+/-
esc
set tempo
stop
Strumming
There is no strumming pattern for this song yet. and get +5 IQ
Intro 1

D --------------------
A -3-3-6-3-9-9-6-3----   X4 (tapado) + X4 (sin tapa)
E --------------------

Intro 2  (es un arpegio que no me sale)

C - A# - C

  C         A#      G#
Tu quieres convencereme
D#      A#      C
Es igual a obedecer
  C         A#       G#    D#       A#        C
Me muestras grandes tapas me muestras tu poder
  C         A#       G#
Eres la formación ¡NO!
  D#       A#        C
eres la información ¡NO!
 C         A#       G#    D#       A#        G
del necio que creyó y los títulos compró


G                  G#        A#           G
Con cada gobierno que apoyaste te fue bien
G                  G#        A#
Vendido al mejor postor oficial entregador


e -----------------------------------------
B -----------------------------------------
G -5--5-5-5-5-3-5--5-5-5-5-3-5-8-5-3-------
D -----------------------------------5-3---
A -----------------------------------------     X2
E -----------------------------------------

Intro 2

Malditas son tus tapas blanco y negro o a color
Amarillas son tus notas y te juzgas de innovader
Maldigo tus mentiras Si!
Maldigo tu opinión  Si!
Creíste convencereme del rebaño no soy yo


Apoyaste al dictador bienvenida la elección
Un día sos oficial y otro día opositor

e -----------------------------------------
B -----------------------------------------
G -5--5-5-5-5-3-5--5-5-5-5-3-5-8-5-3-------
D -----------------------------------5-3---
A -----------------------------------------     X2
E -----------------------------------------

Solo

            
            
Suggest correction
Creating personal tab
Creating personal tab
You can edit any tab online and save it as your Personal.

You can edit, replace or remove any tab part or add personal notes – all changes will be seen only by you.

Personal tabs can be accessed anytime from any device, even offline.
Learn more »
Give kudos to tab author, rate the tab!
1 2 3 4 5
comments
print report bad tab
guest
Wanna post a correction for this tab? Suggest correction