Oops, an error
Loading. Please wait.

Siempre Solo tab

version 1
version 1

Whole song

58 views 1 this week
no commentswrite comment
1 2 3 4 5
3 more votes to show rating
add to favorites
×
Save as Personal and add changes to this tab that will be seen only by you. Learn more ›
×
You can save this tab as Personal to edit and correct it or add notes. All changes will be seen only by you. Learn more »
launch autoscroll
font size
0
reset
how to read this tab
guitar tuner
edit
Autoscroll
slow
fast
+/-
esc
set tempo
stop
Bueno ahi les va mi segunda transcripcion de los 
visconti un grupo buenaso esta bien facil solo escuchen
el disco.

1------------6-6-5-6-5-6--8-10-13h10----10-13-10-13-10--
2----5-6-5---8-8-6-8-6-8-10-12-------12----12-12-12-12--
3--7-------7--------------------------------------------

1--13-10--8-5-------------5-5-5-------------------------
2--12-12-10-6---5-6-8-6-5-------5-6-8-6-5-6-6-6h5-5-5---
3-------------------------------------------------------

1-------------------------------------------------------
2--5/3-3------------------------------------------------
3-------------------------------------------------------

Eso fue todo si alguien tiene el tab de mas canciones
de visconti que las mande en todo caso luego les mando el tab de veneno
estoy trabajando en ello
Comentarios insultos o sugerencias ya saben a dondE
¡¡¡¡¡Y UN SALUDASO PARA LA MAFER!!!!!!!!!!!

            
            
Suggest correction
Creating personal tab
Creating personal tab
You can edit any tab online and save it as your Personal.

You can edit, replace or remove any tab part or add personal notes – all changes will be seen only by you.

Personal tabs can be accessed anytime from any device, even offline.
Learn more »
Give kudos to tab author, rate the tab!
1 2 3 4 5
comments
print report bad tab
guest
Wanna post a correction for this tab? Suggest correction