Oops, an error
Loading. Please wait.

Si El Mundo En Vez De Rosas tab

167 views 1 this week
no commentswrite comment
1 2 3 4 5
3 more votes to show rating
add to favorites
×
Save as Personal and add changes to this tab that will be seen only by you. Learn more ›
×
You can save this tab as Personal to edit and correct it or add notes. All changes will be seen only by you. Learn more »
launch autoscroll
font size
0
reset
how to read this tab
guitar tuner
edit
Autoscroll
slow
fast
+/-
esc
set tempo
stop
lA tAblatUra apArecE cOn nUmeroS eN lA aFinAciOn
pArA eviTar ConfUsiOnes
6= cUerdA maS gRandE
1= cUerdA mAss PequEñA

nOtA: dOndE hAy paRenTesiS cErrAdOs tIeneN q cOlOcAr un TendiDo
(ceJilLa) eN el qUinTo tRastE pResiOnandO cUatrO cUerdAs ok.

pOngAn el cApo a mAneRa q lEs qUedE F eN formA dE C.

iNtRo:
6-|--------------------------------------------------|
5-|------7-7-7-7-7--3-----------------12----10-8--7--|
4-|--------------------0--2--3--7--------------------|
3-|--------------------------------------------------|
2-|-5/6----------------------------------------------|
1-|-7/8--8-8-8-8-8--0--1--3--5----8------13-12-10-8--|

6-|----------------3--1--0--|
5-|-7--5--3--2--0-----------|
4-|-------------------------|
3-|-------------------------|
2-|-------------------3--1--|
1-|-8--7--5--3--1--0--------|

6-|--------------------------------------------------|
5-|--------------------------------------------------|
4-|-----------------()-5----5----5----5----5----5----|
3-|-7---------------()-----5-----5---5----5----5-----|
2-|---5--6--8-------()---5-------5--5----5----5------|
1-|------------5--7-()-8-----8---8------8----8----8--|

6-|--------------------|
5-|--------------------|
4-|-()-7---7---7---7---|
3-|-()-5--5---5---5----|
2-|-()-6-6---6---6-----|
1-|-()-8----8---8----8-|

6-|-------------------------------------------3---1---0--|
5-|-12----10----8-----7---7---5---3---2---0--------------|
4-|------------------------------------------------------|
3-|------------------------------------------------------|
2-|------------------------------------------------------|
1-|-13-13-12-12-10-10-8-8-8-8-7-7-5-5-3-3-1-1-0-0-3-3-1--|

6-|-------------------||
5-|-------------------||
4-|-------------------||
3-|-----0-----0--2----||
2-|---1-----0---------||
1-|-0-----0-----------||

I   F
Punzantes los abrojos del camino  (ADoRNo 1)
   C                         F
nos vienen fe y gozo a confirmar  (AdORNo 2)
   F                      Bb
y enseñan de este modo al peregrino
        F           C                F
que el mundo no podra ser nuestro hogar.
       C                     F
Si en sendas escarpadas tu estas  (ADorNo 2)
    C                         F
no temas que el señor te ayudara   (adOrNo 3)
F                                Bb
si el mundo en vez de rosas te da espinas
      F            C          F
el señor en rosas todas cambiara.

(aQui vA el aDorno dE la IntrO sOlo q en Vez dE
hAceR el PrimEr tOqUe cOn lAs CuerdAS 1era. Y 2da.
sE tOcA lA 3era. aL aIre)
II   F
Si a vuestra paz azotan tempestades (adOrnO 1)
   C                       F
tras tempestades calma llegara (adOrnO 2)
       F                         Bb
que importa que hayan siempre adversidades
   F          C              F
la mano del señor nos sostendrá.
   C                     F
Si en sendas escarpadas tu estas  (adOrnO 2)
    C                         F
no temas que el señor te ayudara (adOrnO 3)
F                                Bb
si el mundo en vez de rosas te da espinas
      F            C          F
el señor en rosas todas cambiara.

(aQui vA el aDorno dE la IntrO cOn la mOdifIcaciOn q lEs dijE)

   F
Si a vuestra paz azotan tempestades (adOrnO 1)
   C                       F
tras tempestades calma llegara (adOrnO 2)
       F                         Bb
que importa que hayan siempre adversidades
   F          C              F
la mano del señor nos sostendrá.
   C                     F
Si en sendas escarpadas tu estas (adOrnO 2)
    C                         F
no temas que el señor te ayudara  (adOrnO 3)
F                                Bb
si el mundo en vez de rosas te da espinas
      F            C          F
el señor en rosas todas cambiara.

aDOrnOs dEl reQuintEO:

adOrnO 1
6-|------------------3--||
5-|------------------2--||
4-|------------------0--||
3-|---------0--2--1--0--||
2-|------1-0---------0--||
1-|-5-3-0------------3--||

adOrnO 2
6-|-----------------||
5-|-----------------||
4-|----2---2---2----||
3-|---0---0---0-----||
2-|--1---0---1------||
1-|-0---1---3----5--||

adOrnO 3
6-|--------------||
5-|--------------||
4-|----2----2----||
3-|---0----0-----||
2-|--1----1---1--||
1-|-3----0-------||

bUenO nO esTan tAn pErfEctOs pErO sE lE pArecEm
OjalA lEs sIrva
sI qUierEn cOmenTar lO pUedEn hAcEr eN mi hi5
cuAlqUieR OtrA cOsA: marvillagran@

sAluDos pAra lA igLesiA Embajadores de Cristo QS
eN gUatE

DIOS BENDIGA AL GRUPO REY DE GLORIA

            
            
Suggest correction
Creating personal tab
Creating personal tab
You can edit any tab online and save it as your Personal.

You can edit, replace or remove any tab part or add personal notes – all changes will be seen only by you.

Personal tabs can be accessed anytime from any device, even offline.
Learn more »
Give kudos to tab author, rate the tab!
1 2 3 4 5
comments
print report bad tab
guest
Wanna post a correction for this tab? Suggest correction