Oops, an error
Loading. Please wait.
We have Chord Pro version of Reality.
It's the closest thing you can get to the original song and it has interactive parts. Check out the tab »
×

Reality tab

version 2
version 2

Whole song

Interactive

37,612 views 27 this week
4 commentsread comments
1 2 3 4 5
x 24
add to favorites
×
Save as Personal and add changes to this tab that will be seen only by you. Learn more ›
×
You can save this tab as Personal to edit and correct it or add notes. All changes will be seen only by you. Learn more »
launch autoscroll
font size
0
reset
how to read this tab
guitar tuner
edit
Autoscroll
slow
fast
+/-
esc
set tempo
stop
Author
[Intro/Riff]

e|----4-7-4------------------------------------------------------|
B|-/5--------5---4--4----4-4---4-5---5-4--2--2-----2-4-2-0-------|
G|--------------------4------4------------------2----------------|
D|---------------------------------------------------------------|
A|---------------------------------------------------------------|
E|---------------------------------------------------------------|

e|----4-7-4------------------------------------------------------|
B|-/5--------5---4--4----4-4---4-5---5-4--2--2-----2-4-2h4p2p0---|
G|--------------------4------4------------------2----------------|
D|---------------------------------------------------------------|
A|---------------------------------------------------------------|
E|---------------------------------------------------------------|


[Chords]

  E   G#m  C#m   A

e|--0----4----4----0----------------------------------------------|
B|--0----4----5----2----------------------------------------------|
G|--1----4----6----2----------------------------------------------|
D|--2----6----6----2----------------------------------------------|
A|--2----6----4----0----------------------------------------------|
E|--0----4----4----0----------------------------------------------|



************************************

| h  Hammer-on
| p  Pull-off
| /  Slide up

************************************

            
            
Suggest correction
Creating personal tab
Creating personal tab
You can edit any tab online and save it as your Personal.

You can edit, replace or remove any tab part or add personal notes – all changes will be seen only by you.

Personal tabs can be accessed anytime from any device, even offline.
Learn more »
comments
print report bad tab
4 comments total. Showing first comments.
-1 reply
mikedexter 95 Jan 10, 2016 02:45 AM

Hey! Pretty good job, but I hear some mistakes, and my version could be like that:

----4-7-4------------------------------------------------------
-/5--------5---4--4----4-4---4-2-2-5-4--2--2-----2-4---0-------
--------------------4------4------------------2------2---------
---------------------------------------------------------------
---------------------------------------------------------------
---------------------------------------------------------------

----4-7-4------------------------------------------------------
-/5--------5---4--4----4-4---4-2-2-5-4--2--2-----2-4-2h4p2p0---
--------------------4------4------------------2----------------
---------------------------------------------------------------
---------------------------------------------------------------
---------------------------------------------------------------

+3 reply
basis2000 128 Aug 30, 2016 04:55 AM

Try this one out! ;)

e-----4-4---------------------------------------------|
B-4s5-----5-4-4---4-4---4s5-2-5-4-2-2-2---2-4---0-----|
G---------------4-----4-----------------2-----2-------|
D-----------------------------------------------------|
A-----------------------------------------------------|
E-----------------------------------------------------|

e-----4-4---------------------------------------------|
B-4s5-----5-4-4---4-4---4s5-2-5-4-2-2-2---2-4-2h4p2p0-|
G---------------4-----4-----------------2-------------|
D-----------------------------------------------------|
A-----------------------------------------------------|
E-----------------------------------------------------|

0 reply
braydenmajid 10 Nov 12, 2017 12:28 AM

e— — 4-4— — — — — — — — — — — — — — —
B—4/5— —5–4–4—4-4—4—5–5–5-4–2-2—2-4-2-0
G— — — — — —4— —4— — — — — — 2— — —
Little change. End bit for second part the same

guest
You may want to rate the tab now too:
select rating
Wanna post a correction for this tab? Suggest correction