Oops, an error
Loading. Please wait.
We have Chord Pro version of Reality.
It's the closest thing you can get to the original song and it has interactive parts. Check out the tab »
×

Reality intro tab

version 2
version 2

Intro

  • This is the tab to the intro in the song Reality b... Show more

Whole song

Interactive

9,889 views 15 this week
no commentswrite comment
1 2 3 4 5
x 5
add to favorites
×
Save as Personal and add changes to this tab that will be seen only by you. Learn more ›
×
You can save this tab as Personal to edit and correct it or add notes. All changes will be seen only by you. Learn more »
launch autoscroll
font size
0
reset
how to read this tab
guitar tuner
edit
Autoscroll
slow
fast
+/-
esc
set tempo
stop
-------------------------------------------------------------------------------
                             Reality - Lost Frequencies
-------------------------------------------------------------------------------
Tabbed by:Gerrie Klopping
E-mail:Hklapping@hotmail.com

Tuning:EADGBE

For advanced player

  E(barré)      Gm#         Cm#      A(open)
e|-------7-------------------------------------------------------------------|
B|-----9---9------4---44------5-5-4--2-2--2-4-2------------------------------|
G|-4/9-------9-----4----4-----6-6-6--2--2-------4----------------------------|
D|------------------6----6---------------2-----------------------------------|
A|--------------------------4--4-----0---------------------------------------|
E|--------------4------------------------------------------------------------|
   
  E(barré)      Gm#         Cm#      A(open)
e|-------7-------------------------------------------------------------------|
B|-----9---9------4---44------5-5-4--2-2--2-4-2h4p2--------------------------|
G|-4/9-------9-----4----4-----6-6-6--2--2----------h4------------------------|
D|------------------6----6---------------2-----------------------------------|
A|--------------------------4--4-----0---------------------------------------|
E|--------------4------------------------------------------------------------|
   
the first part is played slighty different.. 

Capo on 4th 
Beginner   ( )= Optional ( sounds and plays better )

    C           Em           Am       F
e|----0-3-0------------------------------------------------------------------|
B|--1-------1--(0)0---00------1-1-0------------------------------------------|
G|-------------(0)-0----0-----2-2-2--2-2--2-4-2-0----------------------------|
D|------------------2----2-----------3--3------------------------------------|
A|-(3)----------------------0--0---------3-----------------------------------|
E|--------------0--------------------1---------------------------------------|


    C           Em          Am       F
e|----0-3-0------------------------------------------------------------------|
B|--1-------1--(0)0---00------1-1-0------------------------------------------|
G|-------------(0)-0----0-----2-2-2--2-2--2-4-2h4p2p0------------------------|
D|------------------2----2-----------3--3------------------------------------|
A|-(3)----------------------0--0---------3-----------------------------------|
E|--------------0--------------------1---------------------------------------|



| /   slide up
| \   slide down
| h   hammer-on
| p   pull-off
| ~   vibrato
| +   harmonic
| x   Mute note
| b   Bend
| pb  Pre-bend
| br  Bend release
| pbr Pre-bend release
| brb Bend release bend

************************************

            
            
Suggest correction
Creating personal tab
Creating personal tab
You can edit any tab online and save it as your Personal.

You can edit, replace or remove any tab part or add personal notes – all changes will be seen only by you.

Personal tabs can be accessed anytime from any device, even offline.
Learn more »
comments
print report bad tab
guest
You may want to rate the tab now too:
select rating
Wanna post a correction for this tab? Suggest correction