Oops, an error
Loading. Please wait.

Do You Get What You Pray For intro tab

version 1
version 1

Intro

Interactive

562 views 1 this week
3 commentsread comments
1 2 3 4 5
1 last vote to show rating
add to favorites
×
Save as Personal and add changes to this tab that will be seen only by you. Learn more ›
×
You can save this tab as Personal to edit and correct it or add notes. All changes will be seen only by you. Learn more »
launch autoscroll
font size
0
reset
how to read this tab
guitar tuner
edit
Autoscroll
slow
fast
+/-
esc
set tempo
stop
This is my first tab so tips and corrections are appreciated. Feel free to contact me 
for alterations or questions.
Tuning in Drop C#.
This is the intro to Do You Get What You Pray For - LostAlone

-------------------------------------------------------------------------------
                             Do You Get What You Pray For - LostAlone
-------------------------------------------------------------------------------
Tabbed by: Ryan Ayton
E-mail: ayton41@googlemail.com


Tuning: Drop C#

D#  |--L----L----L----L----0----8----7----5----0----8----7----5----|
A#  |--L----L----L----L----0----8----7----5----0----8----7----5----|
F#  |--L----L----L----L----0----8----7----5----0----8----7----5----|
C#  |--L----L----L----L----0----8----7----5----0----8----7----5----|
G#  |--L----L----L----L----0----8----7----5----0----8----7----5----|
C#  |--L----L----L----L----0----8----7----5----0----8----7----5----|

D#|--0----8----7----5----0----7----5----|
A#|--0----8----7----5----0----7----5----|
F#|--0----8----7----5----0----7----5----|
C#|--0----8----7----5----0----7----5----|
G#|--0----8----7----5----0----7----5----|
C#|--0----8----7----5----0----7----5----|

D#|--0----8----7----5----0----8----7----5----0----8----7----5----0----8----7----5--|
A#|--0----8----7----5----0----8----7----5----0----8----7----5----0----8----7----5--|
F#|--0----8----7----5----0----8----7----5----0----8----7----5----0----8----7----5--|
C#|--0----8----7----5----0----8----7----5----0----8----7----5----0----8----7----5--|
G#|--0----8----7----5----0----8----7----5----0----8----7----5----0----8----7----5--|
C#|--0----8----7----5----0----8----7----5----0----8----7----5----0----8----7----5--|

D#|--0----8----7----5----0----8----7----5----0----8----7----5----0----7----5----|
A#|--0----8----7----5----0----8----7----5----0----8----7----5----0----7----5----|
F#|--0----8----7----5----0----8----7----5----0----8----7----5----0----7----5----|
C#|--0----8----7----5----0----8----7----5----0----8----7----5----0----7----5----|
G#|--0----8----7----5----0----8----7----5----0----8----7----5----0----7----5----|
C#|--0----8----7----5----0----8----7----5----0----8----7----5----0----7----5----|

D#|--0----8----7----5----0----8----7----5----0----8----7----5----0----8----7----5--|
A#|--0----8----7----5----0----8----7----5----0----8----7----5----0----8----7----5--|
F#|--0----8----7----5----0----8----7----5----0----8----7----5----0----8----7----5--|
C#|--0----8----7----5----0----8----7----5----0----8----7----5----0----8----7----5--|
G#|--0----8----7----5----0----8----7----5----0----8----7----5----0----8----7----5--|
C#|--0----8----7----5----0----8----7----5----0----8----7----5----0----8----7----5--|



************************************

| /   slide up
| \   slide down
| h   hammer-on
| p   pull-off
| ~   vibrato
| L   tied note
| +   harmonic
| x   Mute note
| b   Bend
| pb  Pre-bend
| br  Bend release
| pbr Pre-bend release
| brb Bend release bend

************************************

            
            
Suggest correction
Creating personal tab
Creating personal tab
You can edit any tab online and save it as your Personal.

You can edit, replace or remove any tab part or add personal notes – all changes will be seen only by you.

Personal tabs can be accessed anytime from any device, even offline.
Learn more »
Give kudos to tab author, rate the tab!
1 2 3 4 5
comments
print report bad tab
3 comments total.
+1 reply
MychemGD 786 Mar 15, 2013 01:53 PM

i think it´s the half step down tuning like all lostalone songs ;)
D#----------------------------------------------------------------
A#----------------------------------------------------------------
F#----------------------------------------------------------------
C#---8-7-5-7-5---5---7-8-7-5---7-5---7-8-7-5-7-5------7-5---7-5---
G#---8-7-5-7-5---5---7-8-7-5---7-5---7-8-7-5-7-5------7-5---7-5---
D#-0-6-5-3-5-3-0-3---5-6-5-3-0-5-3---5-6-5-3-5-3-0--0-5-3-0-5-3---

0 reply
myckmyck 10 Oct 03, 2013 10:51 AM

try this for the second part of the song I maked listening the song in slow.(I have not found the rest of the song)
D#----------------------------------------------------------------
A#----------------------------------------------------------------
F#----------------------------------------------------------------
C#-0/2-2-2--------0-2-2-2---------------5-4-----4-----------------
G#------------------------------------2-----2-5-------------------
D#---------5-3-0----------5-3-0-2-3-5-----------------------------

0 reply
myckmyck 10 Oct 03, 2013 10:51 AM

try this for the second part of the song I maked listening the song in slow.(I have not found the rest of the song)
D#----------------------------------------------------------------
A#----------------------------------------------------------------
F#----------------------------------------------------------------
C#-0/2-2-2--------0-2-2-2---------------5-4-----4-----------------
G#------------------------------------2-----2-5-------------------
D#---------5-3-0----------5-3-0-2-3-5-----------------------------

guest
You may want to rate the tab now too:
select rating
Wanna post a correction for this tab? Suggest correction