Oops, an error
Loading. Please wait.

Broken Hearts Torn Up Letters And The Story Of A Lonely Girl tab

version 1
version 1

Whole song

Interactive

11,379 views 3 this week
3 commentsread comments
1 2 3 4 5
x 10
add to favorites
×
Save as Personal and add changes to this tab that will be seen only by you. Learn more ›
×
You can save this tab as Personal to edit and correct it or add notes. All changes will be seen only by you. Learn more »
launch autoscroll
font size
0
reset
how to read this tab
guitar tuner
edit
Autoscroll
slow
fast
+/-
esc
set tempo
stop
Intro guitar 1
e|-----------------------------------------------|
b|-----8-8----8-8----8-----8-8----8-8----8-------|
g|-----9-9----9-9----9-----9-9----9-9----9-------|
d|--77-----77-----77---777-----77-----77---777---|
a|--00-----00-----00---000-----00-----00---000---|
d|-----------------------------------------------|

Intro Guitar 2
e|----------------------|
b|----------------------|
g|--------7-12-7--------|
d|-7-9-10--------10-9---|
a|----------------------|
d|----------------------|
    Repeat 3 times, on third add
e|----------------------|
b|----------------------|
g|-12-7------12-7-------|
d|------10-9------10-9--|
a|----------------------|
d|----------------------|

Verse Guitar 1
e|------------------------|
b|------------------------|
g|------------------------|
d|-3333-5555-7777-7777----|
a|-3333-5555-7777-7777----|
d|-3333-5555-7777-7777----|

Verse Guitar 2
e|--------------------------|
b|--------------------------|
g|--777--555-777-555--------|
d|--------------------------|
a|--555--333-555-333--------|
d|--------------------------|

Chorus Guitar 1
e|-------------------------------------------------------------|
b|-------------------------------------------------------------|
g|-55555555-----------------------55555555---------------------|
d|-55555555-55555555-777777777777-55555555-55555555-33333333---|
a|-33333333-55555555-777777777777-33333333-55555555-33333333---|
d|----------55555555-777777777777----------55555555-33333333---|

Chorus Guitar 2
e|--------------------------------|
b|--------------------------------|
g|-5---7---9------2---4-----------|
d|------------5-------------------|
a|-3---5---7------0---2-----------|
d|------------5-------------------|


Repeat intro
Repeat Verse
Repeat Chorus

Guitar 2 repeats intro while guitar one plays
the Bridge

Bridge
e|--------------------------------------------|
b|--------------------------------------------|
g|--------------------------------------------|
d|--3333-5555-7777-9999-3333-5555-7777-2222---|
a|--3333-5555-7777-9999-3333-5555-7777-2222---|
d|--3333-5555-7777-9999-3333-5555-7777-2222---|
   Repeat

Repeat Verse
Repeat Chorus

            
            
Suggest correction
Creating personal tab
Creating personal tab
You can edit any tab online and save it as your Personal.

You can edit, replace or remove any tab part or add personal notes – all changes will be seen only by you.

Personal tabs can be accessed anytime from any device, even offline.
Learn more »
comments
print report bad tab
3 comments total.
0 reply
HurricaneSG 51 Jul 08, 2006 02:38 PM

seems to be correct.. but i dont like to move from a 7 to 12 in the just play b-8 instead of g-12.. same issue with another riff

0 reply
ahhmust 10 Jul 13, 2006 06:26 AM

not bad but its in drop C tuning mate. Tabbing it as we speak

0 reply
taboholic 10 Nov 06, 2006 11:23 AM

gr8 tab and a gr8 song cheers

guest
You may want to rate the tab now too:
select rating
Wanna post a correction for this tab? Suggest correction