Oops, an error
Loading. Please wait.

Cant Catch Tomorrow Good Shoes Wont Save You This Time bass

version 1
version 1

Whole song

Interactive

8,085 views 1 this week
2 commentsread comments
1 2 3 4 5
x 11
add to favorites
×
Save as Personal and add changes to this tab that will be seen only by you. Learn more ›
×
You can save this tab as Personal to edit and correct it or add notes. All changes will be seen only by you. Learn more »
launch autoscroll
font size
0
reset
guitar tuner
backing track
0:00
0:00
edit
Autoscroll
slow
fast
+/-
esc
set tempo
stop
Author
Lost Prophets – Cant Catch Tomorrow (Good Shoes Won’t Save You This Time),
from album Liberation Transmission

Drop D Tuning DADG

Intro
G|-----------------------------------------------------------------------|
D|-----------------------------------------------------------------------| X2
A|----------------------------------0-3-3-3333-3-3-3333-0-0-0000-0-------|
D|-2-2-2222-2-2-2222-2-2-2222-2-4-5--------------------------------5-4-2-|

Verse
G|-----------------------------------------------|
D|-----------------------------------------------| 
A|----------------------0-3-3--3-3--0-0--0-2-0---|
D|-2-2--2-2--2-2--2-4-5------------------------5-|

G|----------------------------------------------|
D|----------------------------------------------| 
A|----------------------0-3-3--3-3--0-0--0-0-7\-|
D|-2-2--2-2--2-2--2-4-5-------------------------|

G|---------------------------------------------------------------------|
D|---------------------------------------------------------------------| 
A|-3-3-3-3-3-3-3p2-3p2-0-0-0-0-0-0-0/2---------------------------------|
D|-------------------------------------2-2-2-2-2-2-2-2-4-4-4-4-5-5-5-5-|

Chorus
G|-------------------------------------------------------------------------|
D|-------------------------------------------------------------------------|
A|-3-3-3333----------5-5-5555-7-7-5-5--3-3-3333----------5-5-5555-7-9-10-9-|
E|----------5-5-5555----------------------------5-5-5555-------------------|

G|-----------------------------------------------------------------------------|
D|-----------------------------------------------------------------------------|
A|-3-3-3333----------5-5-5555-7-7-5-5--3-3-3333----------5-5-5-5-77-99-1010-9\-|
E|----------5-5-5555----------------------------5-5-5555-----------------------|

Post Chorus
G|------------------------------------|
D|------------------------------------|
A|------------------------------------|
D|-2-2-2222-2-2-2222-2-2-2222-2-4-5-4-|

Verse
G|-----------------------------------------------|
D|-----------------------------------------------| X2
A|----------------------0-3-3--3-3--0-0--0-2-0---|
D|-2-2--2-2--2-2--2-4-5------------------------5-|

G|---------------------------------------------------------------------|
D|---------------------------------------------------------------------| 
A|-3-3-3-3-3-3-3p2-3p2-0-0-0-0-0-0-0/2-------------------------0-0-2-2-|
D|-------------------------------------2-2-2-2-2-2-2-2-4-4-4-4---------|

Chorus
G|-------------------------------------------------------------------------|
D|-------------------------------------------------------------------------|
A|-3-3-3333----------5-5-5555-7-7-5-5--3-3-3333----------5-5-5555-7-9-10-9-|
E|----------5-5-5555----------------------------5-5-5555-------------------|

G|------------------------------------------------------------------------|
D|------------------------------------------------------------------------|
A|-3-3-3333----------5-5-5555-7-7-5-5--3-3-3333----------5-5-5555-7-7-5-5-|
E|----------5-5-5555----------------------------5-5-5555------------------|

Bridge
G|-------------------------------------------------------------------------|
D|-------------------------------------------------------------------------|
A|-3-3-3333-3-3-3333-0-0-0000-0-0-0000-----------------------------------0-|
D|-------------------------------------2-2-2222-2-2-2222-2-2-2222-2-2-22---|

G|--------------------------------------------------------------------------|
D|--------------------------------------------------------------------------|
A|-3-3-3333-3-3-3333-0-0-0000-0-0/7-7---------------------------------------|
D|------------------------------------2-2~-/14-14~---12h141414141414141414\-|

Chorus
G|-------------------------------------------------------------------------|
D|-------------------------------------------------------------------------|
A|-3-3-3333----------5-5-5555-7-7-5-5--3-3-3333----------5-5-5555-7-9-10-9-|
E|----------5-5-5555----------------------------5-5-5555-------------------|

G|-----------------------------------------------------------------------------|
D|-----------------------------------------------------------------------------|
A|-3-3-3333----------5-5-5555-7-7-5-5--3-3-3333----------5-5-5-5-77-99-1010-9\-|
E|----------5-5-5555----------------------------5-5-5555-----------------------|

G|------------------------------------------------------------------------|
D|------------------------------------------------------------------------| X2
A|-3-3-3-33----------------------------3-3-3-33----------5-5-5-55-7-7-9-9-|
D|----------5-5-5-55-0-0-0-00-2-2-0-0-----------5-5-5-55------------------|

Outro
G|----------|
D|----------| X7
A|----------|
D|-2-2-2222-|

G|-------|
D|-------| 
A|-------|
D|-2-2-2-|

That’s what I think it goes like.
Please rate it and email me if you have any problems, adam.vaughan@hotmail.co.uk

Adam Vaughan

\ = Slide Down
/ = Slide Up
p = Pull Off
~ = Let ring

            
            
Suggest correction
Creating personal tab
Creating personal tab
You can edit any tab online and save it as your Personal.

You can edit, replace or remove any tab part or add personal notes – all changes will be seen only by you.

Personal tabs can be accessed anytime from any device, even offline.
Learn more »
comments
print report bad tab
2 comments total.
0 reply
david dirnt 292 Jun 14, 2007 06:19 AM

great tab!!!

0 reply
zuthi 148 Jan 20, 2009 12:32 PM

PERFECT!

guest
You may want to rate the tab now too:
select rating
Wanna post a correction for this tab? Suggest correction