Oops, an error
Loading. Please wait.

Everyday Combat bass

version 1
version 1

Whole song

Interactive

5,684 views 1 this week
no commentswrite comment
1 2 3 4 5
x 8
add to favorites
×
Save as Personal and add changes to this tab that will be seen only by you. Learn more ›
×
You can save this tab as Personal to edit and correct it or add notes. All changes will be seen only by you. Learn more »
launch autoscroll
font size
0
reset
guitar tuner
edit
Autoscroll
slow
fast
+/-
esc
set tempo
stop
Band: Lostprophets
Song: Everyday Combat
Tuning: D A D G
Tabbed by: ClosedRoad

Alltrough the song listen for perfect timing

Intro drums and guitar then..

Intro
G ----------------------|
D ----------------------| 
A ----------------------| 
D -4-4444444-0-00-2-22--|

Pre Verse
G ------------------------------------------|
D ------------------------------------------| 2x
A ------------------------------------------|
D -4-4444444-7-7777777-2-2222222-2-2222222--|

Verse
G -------------------|
D -------------------| 2x
A -------------------|
D -4----7----2----2--|

Pre Verse 2x

Pre Chorus
G ------------------------------------------|
D ------------------------------------------| 2x
A ------------------------------------------|
D -0-0000000-0-0000000-2-2222222-2-2222222--|

Chorus
G ---------------------------------------|
D ---------------------------------------| 4x
A ---------------------------------------|
D -4-4444444-00000000-22222222-77776666--|

Intro      4x
Verse      2x
Pre Verse  2x
Pre Chorus 2x
Chorus     4x

After Chorus
G -------------------------------|
D -------------------------------| 2x
A -------------------------------|
D -2-4\\--2-4\\--2-4\\--2-4\002--|

Intro 2x

Guitar solo
G -------------------------------------------|
D -------------------------------------------| 4x
A -------------------------------------------|
D -4-4444444-7-7777777-9-9999999-7-77777777--|

Chorus 4x
After Chorus 2x (let low D --4~-- ring)

Bridge (don't think your safe...)
G ----------------------------------------------|
D -4444444444444444-----------------------------| 2x
A ------------------0000000000000000--5..(32x)--|
D ----------------------------------------------|

Heavy part
G ----------------------------------------------------------|
D ----------------------------------------------------------| 3x
A -------------------0-000000000000000----------------------|
D -4-444444444444444-------------------0-0000000-2-2222222--|

End
G ----------------|
D ----------------|
A ----------------|
D -4--7--0--2--4--|

That's it
Have Fun
Greetings ClosedRoad

            
            
Suggest correction
Creating personal tab
Creating personal tab
You can edit any tab online and save it as your Personal.

You can edit, replace or remove any tab part or add personal notes – all changes will be seen only by you.

Personal tabs can be accessed anytime from any device, even offline.
Learn more »
comments
print report bad tab
guest
You may want to rate the tab now too:
select rating
Wanna post a correction for this tab? Suggest correction