Oops, an error
Loading. Please wait.

Make A Move bass

version 2
version 2

Whole song

Interactive

365 views 1 this week
no commentswrite comment
1 2 3 4 5
3 more votes to show rating
add to favorites
×
Save as Personal and add changes to this tab that will be seen only by you. Learn more ›
×
You can save this tab as Personal to edit and correct it or add notes. All changes will be seen only by you. Learn more »
launch autoscroll
font size
0
reset
guitar tuner
edit
Autoscroll
slow
fast
+/-
esc
set tempo
stop
Probably one of the best bassists at his prime but an easy song but fun to play none the 
here :)

INTRO (listen carefully for timings, comes in about 0:09)
F|--------------------|
C|--------------------|
G|--------------------|
C|-12\0--2-3~-8~-7-2--| 12's

CHORUS X2
F|-------------------------------------------------------|
C|-------------------------------------------------------|
G|-------------------------------------------------------|
C|-12\0-0-0-0-0000/8-8-8-8-8888\3-3-3-3-3333-3-3-3/5555--| 12's

VERSE (PART 1) "so are we lost..."
F|------------------------|
C|------------------------|
G|------------------------|
C|-12\0---3---7------10---| 12's

VERSE (PART 2) "Direction we should go..."
F|---------------------------------------------------------|
C|---------------------------------------------------------|
G|---------------------------------------------7-----7~----|
C|-12\0-0-0-02-3-3-3-3-3-2-3-7-10-7-7-7-10--10---10--------| 10's and 12's

VERSE (PART 3) (X2) "cause everyday we're...."
F|---------------------------------------------------------|
C|---------------------------------------------------------|
G|---------------------------------------------------------|
C|-0000-0-02-3333-3-33-7777-7-5-7-10101010-10-7-10---------| 10's

Back to Chorus ("wake up wake up")X2

VERSE PART 2 X2

VERSE PART 3 X2

Chorus X 4

BRIDGE PART 1
F|-------|
C|-------|
G|-------| X3 then slide down from 12th fret on fourth one
C|-00-00-|

BRIDGE PART 2 X4
F|---------------------|
C|---------------------|
G|------1-1-------1-13-| 1's and 3's not 13's
C|-0000--0--0000---0---|

then after 4th
F|------------|
C|------------|
G|---3---1----| X1
C|-0---0----0-|

Then Verse (Part 1) X1

Then Chorus X4

Some of the variations i'll play when i cover it on youtube (Channel: njhopkins1992) but 
tabbed as good as iI can cause too many people have lazily listened to songs and tabbed 
without paying attention to the whole bass parts!

Enjoy :)

            
            
Suggest correction
Creating personal tab
Creating personal tab
You can edit any tab online and save it as your Personal.

You can edit, replace or remove any tab part or add personal notes – all changes will be seen only by you.

Personal tabs can be accessed anytime from any device, even offline.
Learn more »
Give kudos to tab author, rate the tab!
1 2 3 4 5
comments
print report bad tab
guest
You may want to rate the tab now too:
select rating
Wanna post a correction for this tab? Suggest correction