Oops, an error
Loading. Please wait.

Rooftops tab

49,453 views 12 this week
7 commentsread comments
1 2 3 4 5
x 23
add to favorites
×
Save as Personal and add changes to this tab that will be seen only by you. Learn more ›
×
You can save this tab as Personal to edit and correct it or add notes. All changes will be seen only by you. Learn more »
launch autoscroll
font size
0
reset
how to read this tab
guitar tuner
backing track
0:00
0:00
edit
Autoscroll
slow
fast
+/-
esc
set tempo
stop
Author
Artist: Lostprophets
Song: Rooftops
Tuning: Standard (EADGBe)

[Intro: Lead]
e|-------------------|-------------------|-------------------|-------------------|
B|-8888-8-8-8888-8-8-|-8888-8-8-8888-8-8-|-8888-8-8-8888-8-8-|-8888-8-8-8888-8-8-|
G|-xxxx-x-x-xxxx-x-x-|-xxxx-x-x-xxxx-x-x-|-xxxx-x-x-xxxx-x-x-|-7777-7-7-7777-7-7-|
D|-5555-5-5-5555-5-5-|-5555-5-5-5555-5-5-|-7777-7-7-7777-7-7-|-xxxx-x-x-xxxx-x-x-|
A|-------------------|-7777-7-7-7777-7-7-|-5555-5-5-5555-5-5-|-5555-5-5-5555-5-5-|
E|-------------------|-------------------|-------------------|-------------------|

e|-------------------|-------------------|
B|-8888-8-8-8888-8-8-|-7777-7-7-7777-7-7-|
G|-7777-7-7-7777-7-7-|-7777-7-7-7777-7-7-|
D|-5555-5-5-5555-5-5-|-5555-5-5-5555-5-5-|
A|-------------------|-------------------|
E|-------------------|-------------------|

[Verse 1: Lead] x4
e|-------------------|-------------------|-------------------|-------------------|   
B|-8888-8-8-8888-8-8-|-8888-8-8-8888-8-8-|-8888-8-8-8888-8-8-|-7777-7-7-7777-7-7-|
G|-xxxx-x-x-xxxx-x-x-|-xxxx-x-x-xxxx-x-x-|-7777-7-7-7777-7-7-|-7777-7-7-7777-7-7-|
D|-5555-5-5-5555-5-5-|-7777-7-7-7777-7-7-|-5555-5-5-5555-5-5-|-5555-5-5-5555-5-5-|
A|-------------------|-5555-5-5-5555-5-5-|-------------------|-------------------|
E|-------------------|-------------------|-------------------|-------------------|

[Verse 1: Rhythm]
(After Lead Plays Twice)(x2)(P.M)
e|-------------------|-------------------|-------------------|-------------------|
B|-------------------|-------------------|-------------------|-------------------|
G|-------------------|-------------------|-------------------|-------------------|
D|-------------------|-------------------|-------------------|-------------------|
A|-10~---------------|-12~---------------|-14~---------------|-17~---------------|
E|--8~---------------|-10~---------------|-12~---------------|-15~---------------|

[Chorus 1]
Lead and Rhythm x2
e|-------------------|------------------------|
B|-------------------|------------------------|
G|-5555555555555555--|-777777-999999-12121212-|
D|-5555555555555555--|-777777-999999-12121212-|
A|-3333333333333333--|-555555-777777-10101010-|
E|-3333333333333333--|-555555-777777-10101010-|

e|-------------------|------------------------|
B|-------------------|------------------------|
G|-5555555555555555--|-777777-999999-7777-----|
D|-5555555555555555--|-777777-999999-7777-----|
A|-3333333333333333--|-555555-777777-5555-----|
E|-3333333333333333--|-555555-777777-5555-----|

[Verse 2: Lead] x4
e|-------------------|-------------------|-------------------|-------------------|   
B|-8888-8-8-8888-8-8-|-8888-8-8-8888-8-8-|-8888-8-8-8888-8-8-|-7777-7-7-7777-7-7-|
G|-xxxx-x-x-xxxx-x-x-|-xxxx-x-x-xxxx-x-x-|-7777-7-7-7777-7-7-|-7777-7-7-7777-7-7-|
D|-5555-5-5-5555-5-5-|-7777-7-7-7777-7-7-|-5555-5-5-5555-5-5-|-5555-5-5-5555-5-5-|
A|-------------------|-5555-5-5-5555-5-5-|-------------------|-------------------|
E|-------------------|-------------------|-------------------|-------------------|

[Verse 2: Rhythm (P.M)] x2
e|-------------------|-------------------|-------------------|-------------------|
B|-------------------|-------------------|-------------------|-------------------|
G|-------------------|-------------------|-------------------|-------------------|
D|-------------------|-------------------|-------------------|-------------------|
A|-10(x32)-----------|-12(x32)-----------|-14(x32)-----------|-17(x32)-----------|
E|--8----------------|-10----------------|-12----------------|-15----------------|

e|-------------------|-------------------|-------------------|-------------------|
B|-------------------|-------------------|-------------------|-------------------|
G|-------------------|-------------------|-------------------|-------------------|
D|-------------------|-------------------|-------------------|-------------------|
A|-10(x32)-----------|-12(x32)-----------|-14(x32)-----------|-12(x32)-----------|
E|--8----------------|-10----------------|-12----------------|-10----------------|

[Chorus 2]
(Lead and Rhythm)
e|-------------------|------------------------|
B|-------------------|------------------------|
G|-5555555555555555--|-777777-999999-12121212-|
D|-5555555555555555--|-777777-999999-12121212-|
A|-3333333333333333--|-555555-777777-10101010-|
E|-3333333333333333--|-555555-777777-10101010-|

e|-------------------|------------------------|
B|-------------------|------------------------|
G|-5555555555555555--|-777777-999999-7777-----|
D|-5555555555555555--|-777777-999999-7777-----|
A|-3333333333333333--|-555555-777777-5555-----|
E|-3333333333333333--|-555555-777777-5555-----|

[Post-Chorus Interlude: Lead]
e|----------------------|-------------------|-------------------|-------------------|
B|----------------------|-------------------|-------------------|-------------------|
G|-44-12(x8)---11(x8)---|-777777777777777---|-444-9999999-111111|-777777777777777---|
D|-xx--x--------x-------|-x-x-x-x-x-x-x-x---|-xxx-xxxxxxx--x-x-x|-xxxxxxxxxxxxxxx---|
A|-22-10--------9-------|-555555555555555---|-222-7777777--9-9-9|-555555555555555---|
E|----------------------|-------------------|-------------------|-------------------|

e|----------------------|-------------------|-------------------|-------------------|
B|----------------------|-------------------|-------------------|-------------------|
G|-44-12(x8)---14(x8)---|-111111-999-777777-|-44-999999999999999|--7-7-7----7-7-7---|
D|-xx--x--------x-------|--x-x-x-xxx-xxxxxx-|-xx-xxxxxxxxxxxxxxx|--7-7-7----7-7-7---|
A|-22-10-------12-------|--9-9-9-777-555555-|-22-777777777777777|--5-5-5----5-5-5---|
E|----------------------|-------------------|-------------------|--5-5-5----5-5-5---|

[Post-Chorus Interlude: Rhythm]
e|-------------------|-------------------|-------------------|---------------------------------|
B|-------------------|-------------------|-------------------|---------------------------------|
G|-5555555555555555--|-7777777777777777--|-9999999999999999--|-12121212121212121212121212121212|
D|-5555555555555555--|-7777777777777777--|-9999999999999999--|-12121212121212121212121212121212|
A|-3333333333333333--|-5555555555555555--|-7777777777777777--|-10101010101010101010101010101010|
E|-3333333333333333--|-5555555555555555--|-7777777777777777--|-10101010101010101010101010101010|

e|-------------------|-------------------|-------------------|---------------------------------|
B|-------------------|-------------------|-------------------|---------------------------------|
G|-5555555555555555--|-7777777777777777--|-9999999999999999--|--7-7-7----7-7-7-----------------|
D|-5555555555555555--|-7777777777777777--|-9999999999999999--|--7-7-7----7-7-7-----------------|
A|-3333333333333333--|-5555555555555555--|-7777777777777777--|--5-5-5----5-5-5-----------------|
E|-3333333333333333--|-5555555555555555--|-7777777777777777--|--5-5-5----5-5-5-----------------|

[Bridge(Pt 1): Lead and Rhythm]
e|-------------------|-------------------|-------------------|---------------------------------|
B|-------------------|-------------------|-------------------|---------------------------------|
G|-55555-55555-5555--|-77777-77777-7777--|-99999-99999-9999--|-1212121212--1212121212--12121212|
D|-55555-55555-5555--|-77777-77777-7777--|-99999-99999-9999--|-1212121212--1212121212--12121212|
A|-33333-33333-3333--|-55555-55555-5555--|-77777-77777-7777--|-1010101010--1010101010--10101010|
E|-33333-33333-3333--|-55555-55555-5555--|-77777-77777-7777--|-1010101010--1010101010--10101010|

e|-------------------|-------------------|-------------------|---------------------------------|
B|-------------------|-------------------|-------------------|---------------------------------|
G|-55555-55555-5555--|-77777-77777-7777--|-99999-99999-9999--|-1212121212--1212121212--12121212|
D|-55555-55555-5555--|-77777-77777-7777--|-99999-99999-9999--|-1212121212--1212121212--12121212|
A|-33333-33333-3333--|-55555-55555-5555--|-77777-77777-7777--|-1010101010--1010101010--10101010|
E|-33333-33333-3333--|-55555-55555-5555--|-77777-77777-7777--|-1010101010--1010101010--10101010|

[Bridge(Pt.2) Lead and Rhythm]
e|-------------------|------------------------|
B|-------------------|------------------------|
G|-5555555555555555--|-777777-999999-12121212-|
D|-5555555555555555--|-777777-999999-12121212-|
A|-3333333333333333--|-555555-777777-10101010-|
E|-3333333333333333--|-555555-777777-10101010-|

e|-------------------|------------------------|
B|-------------------|------------------------|
G|-5555555555555555--|-777777-999999-7777-----|
D|-5555555555555555--|-777777-999999-7777-----|
A|-3333333333333333--|-555555-777777-5555-----|
E|-3333333333333333--|-555555-777777-5555-----|

e|-------------------|------------------------|
B|-------------------|------------------------|
G|-5555555555555555--|-777777-999999-12121212-|
D|-5555555555555555--|-777777-999999-12121212-|
A|-3333333333333333--|-555555-777777-10101010-|
E|-3333333333333333--|-555555-777777-10101010-|

e|-------------------|------------------------|
B|-------------------|------------------------|
G|-5555555555555555--|---777----999-----------|
D|-5555555555555555--|---777----999-----------|
A|-3333333333333333--|---555----777-----------|
E|-3333333333333333--|---555----777-----------|

[Chorus 3 & Outro:(Lead and Rhythm)]
e|-------------------|------------------------|
B|-------------------|------------------------|
G|-5555555555555555--|-777777-999999-12121212-|
D|-5555555555555555--|-777777-999999-12121212-|
A|-3333333333333333--|-555555-777777-10101010-|
E|-3333333333333333--|-555555-777777-10101010-|

e|-------------------|------------------------|
B|-------------------|------------------------|
G|-5555555555555555--|-777777-999999-7777-----|
D|-5555555555555555--|-777777-999999-7777-----|
A|-3333333333333333--|-555555-777777-5555-----|
E|-3333333333333333--|-555555-777777-5555-----|

e|-------------------|------------------------|
B|-------------------|------------------------|
G|-5555555555555555--|-777777-999999-12121212-|
D|-5555555555555555--|-777777-999999-12121212-|
A|-3333333333333333--|-555555-777777-10101010-|
E|-3333333333333333--|-555555-777777-10101010-|

e|-------------------|------------------------|
B|-------------------|------------------------|
G|-5555555555555555--|-7------5-------9~------|
D|-5555555555555555--|-7------5-------9~------|
A|-3333333333333333--|-5------3-------7~------|
E|-3333333333333333--|-5------3-------7~------|

Order of Song:
Intro
Verse 1
Chorus 1
Verse 2
Chorus 2
Post-Chorus Interlude
Bridge Pt.1
Bridge Pt.2
Chorus 3 & Outro

************************************

| x  Dead note
| ~  let note/chord ring out
|P.M Palm Mute

************************************

            
            
Suggest correction
Creating personal tab
Creating personal tab
You can edit any tab online and save it as your Personal.

You can edit, replace or remove any tab part or add personal notes – all changes will be seen only by you.

Personal tabs can be accessed anytime from any device, even offline.
Learn more »
comments
print report bad tab
7 comments total. Showing first comments.
0 reply
Lucifer1805 51 Aug 30, 2008 06:18 PM

as far as i can tell its spot on perfect
:)
5 stars mate
best tab up here

0 reply
Musicismylife77 30 Dec 26, 2008 05:23 PM

great tab man!

+1 reply
Dantyke 82 Apr 06, 2009 02:42 PM

This is the best tab on here. Its way easier than the others.

guest
You may want to rate the tab now too:
select rating
Wanna post a correction for this tab? Suggest correction