Oops, an error
Loading. Please wait.

The Handsome Life Of Swing tab

49 views 1 this week
no commentswrite comment
1 2 3 4 5
3 more votes to show rating
add to favorites
×
Save as Personal and add changes to this tab that will be seen only by you. Learn more ›
×
You can save this tab as Personal to edit and correct it or add notes. All changes will be seen only by you. Learn more »
launch autoscroll
font size
0
reset
how to read this tab
guitar tuner
edit
Autoscroll
slow
fast
+/-
esc
set tempo
stop
THE HANDSOME LIFE OF SWING
As recorded by Lostprophets (From the 2000 Album THE FAKE SOUND OF PROGRESS)

Gtr I (C G C F A D) - 'Lee - Distortion'

Gtr II (C G C F A D) - 'Mike - Distortion'

Gtr III (C G C F A D) - 'Lee - Clean'

Gtr IV (C G C F A D) - 'Mike - Clean'


               Verse
  Q=102
            $
  Bbmaj7        D5
 4/4
  Gtr I
   TP            TP                       TP        TP  TP  TP
   W             W                        Q        +E   E  +H
|-17--------||--17---------------------|-15-------(15)-17-(17)----------|
|-15--------||o-15---------------------|-13-------(13)-15-(15)----------|
|-15--------||--14---------------------|-12-------(12)-14-(14)----------|
|-----------||-------------------------|--------------------------------|
|-----------||o------------------------|--------------------------------|
|-----------||-------------------------|--------------------------------|
|
| Gtr II
|                PM---------------|       PM-----------------------|
|  W             S S S S Q  S S S S Q     S S S S   Q       S  S S S Q
|-----------||-------------------------|--------------------------------|
|-----------||o------------------------|--------------------------------|
|-----------||-------------------------|--------------------------------|
|-----------||-------------------------|--------------------------------|
|-----------||o--0-0-0-0----0-0-0-0----|--0-0-0-0-----------0--0-0-0----|
|-----------||---0-0-0-0----0-0-0-0----|--0-0-0-0-----------0--0-0-0----|


   TP                       TP        TP  TP  TP
   W                        Q        +E   E  +H
|-17---------------------|-15-------(15)-10-(10)-------------||
|-15---------------------|-13-------(13)-10-(10)------------o||
|-14---------------------|-12-------(12)--7--(7)-------------||
|------------------------|-----------------------------------||
|------------------------|----------------------------------o||
|------------------------|-----------------------------------||
|
|  PM---------------|       PM-----------------------|
|  S S S S Q  S S S S Q     S S S S   Q       S  S S S Q
|------------------------|-----------------------------------||
|------------------------|----------------------------------o||
|------------------------|-----------------------------------||
|------------------------|-----------------------------------||
|--0-0-0-0----0-0-0-0----|--0-0-0-0-----------0--0-0-0------o||
|--0-0-0-0----0-0-0-0----|--0-0-0-0-----------0--0-0-0-------||


  D5                                               Bbsus2                        Eb5
   S  S  S  S  S  S  S  S  S  S  S   S  S  S   E    S  S  S  S  S  S  S  S  S  S  S   S  S  S   E
|-------17-------17-------17--------17--------17-|-------15-------15-------15--------15--------15-|
|----15-------15-------15-------15--------15-----|----13-------13-------13-------13--------13-----|
|-14-------14-------14-------14--------14--------|-12-------12-------12-------12--------12--------|
|------------------------------------------------|------------------------------------------------|
|------------------------------------------------|------------------------------------------------|
|------------------------------------------------|------------------------------------------------|
|
|  PM---------|                  PM----------------------------|                  PM---------------
|  S  S  S  S  Q           E     E.        E.       S  S  S  S  Q           E     E.        E.
|------------------------------------------------|------------------------------------------------|
|------------------------------------------------|------------------------------------------------|
|------------------------------------------------|------------------------------------------------|
|------------------------------------------------|-10-10-10-10------------------------------------|
|--0--0--0--0--------------------0---------0-----|--8--8--8--8--------------------1---------1-----|
|--0--0--0--0--------------------0---------0-----|--8--8--8--8--------------------1---------1-----|


  D5                                               Bbsus2                        Eb5
   S  S  S  S  S  S  S  S  S  S  S   S  S  S   E    S  S  S  S  S  S  S  S  S  S  S   S  S  S   E
|-------17-------17-------17--------17--------17-|-------15-------15-------------------------------|
|----15-------15-------15-------15--------15-----|----13-------13----------15--------15--------15--|
|-14-------14-------14-------14--------14--------|-12-------12----------14-------14--------14------|
|------------------------------------------------|-------------------12-------12--------12---------|
|------------------------------------------------|-------------------------------------------------|
|------------------------------------------------|-------------------------------------------------|
|
|-------------|                  PM----------------------------|                  PM-------|
|  S  S  S  S  Q           E     E.        E.       S  S  S  S  Q           E     E.        E.
|------------------------------------------------|-------------------------------------------------|
|------------------------------------------------|-------------------------------------------------|
|------------------------------------------------|-------------------------------------------------|
|------------------------------------------------|-10-10-10-10-------------------------------------|
|--0--0--0--0--------------------0---------0-----|--8--8--8--8--------------------1---------1------|
|--0--0--0--0--------------------0---------0-----|--8--8--8--8--------------------1---------1------|


  D5                                               Bbsus2                        Eb5
   S  S  S  S  S  S  S  S  S  S  S   S  S  S   E    S  S  S  S  S  S  S  S  S  S  S   E  S   S  +S
|-------17-------17-------17--------17--------17-|-------15-------15-------15--------20-----15-(15)-|
|----15-------15-------15-------15--------15-----|----13-------13-------13-------13-----13----------|
|-14-------14-------14-------14--------14--------|-12-------12-------12-------12--------------------|
|------------------------------------------------|--------------------------------------------------|
|------------------------------------------------|--------------------------------------------------|
|------------------------------------------------|--------------------------------------------------|
|
|  PM---------|                  PM----------------------------|                  PM-----------------
|  S  S  S  S  Q           E     E.        E.       S  S  S  S  Q           E     E.     E.
|------------------------------------------------|--------------------------------------------------|
|------------------------------------------------|--------------------------------------------------|
|------------------------------------------------|--------------------------------------------------|
|------------------------------------------------|-10-10-10-10--------------------------------------|
|--0--0--0--0--------------------0---------0-----|--8--8--8--8--------------------1------1----------|
|--0--0--0--0--------------------0---------0-----|--8--8--8--8--------------------1------1----------|


                                                                                        To Coda
  D5                                               Bbsus2                        Eb5
   S  S  S  S  S  S  S  S  S  S  S   S  S  S   E    S  S  S  S  S  S  S  S  S  S  S   S  S  S   E
|-------17-------17-------17--------17--------17-|-------15-------15-------------------------------||
|----15-------15-------15-------15--------15-----|----13-------13----------15--------15--------15--||
|-14-------14-------14-------14--------14--------|-12-------12----------14-------14--------14------||
|------------------------------------------------|-------------------12-------12--------12---------||
|------------------------------------------------|-------------------------------------------------||
|------------------------------------------------|-------------------------------------------------||
|
|-------------|                  PM----------------------------|                  PM-------|
|  S  S  S  S  Q           E     E.        E.       S  S  S  S  Q           E     E.        E.
|------------------------------------------------|-------------------------------------------------||
|------------------------------------------------|-------------------------------------------------||
|------------------------------------------------|-------------------------------------------------||
|------------------------------------------------|-10-10-10-10-------------------------------------||
|--0--0--0--0--------------------0---------0-----|--8--8--8--8--------------------1---------1------||
|--0--0--0--0--------------------0---------0-----|--8--8--8--8--------------------1---------1------||


 Chorus
  Ebmaj7      Cmaj9       Ebmaj7             Gm/C
  Gtr IV
   W           W           Q.    Q    Q.      W
|-^3--------|-----------|-^3-----3---(3)---|-^3----|
|-^3--------|-----------|-^3-----3---(3)---|-^3----|
|-^3--------|-^4--------|-^3----(3)--(3)---|-^3----|
|-^5--------|-^2--------|-^5----(5)---5----|-^5----|
|-^6--------|-^3--------|-^6----(6)---6----|-^3----|
|-----------|-----------|------------------|-------|


                                           D.S. al Coda
  Ebmaj7             Cmaj9       Ebmaj7             Gm/C
   Q.    Q    Q.      W           Q.    Q    Q.      W
|-^3-----3---(3)---|-----------|-^3-----3---(3)---|-^3-----||
|-^3-----3---(3)---|-----------|-^3-----3---(3)---|-^3-----||
|-^3----(3)--(3)---|-^4--------|-^3----(3)--(3)---|-^3-----||
|-^5----(5)---5----|-^2--------|-^5----(5)---5----|-^5-----||
|-^6----(6)---6----|-^3--------|-^6----(6)---6----|-^3-----||
|------------------|-----------|------------------|--------||


 Chorus/Solo
  &
  Ebmaj7                Cmaj9       Ebmaj7                       Gm
  Gtr III
    Q   Q.    E.  E.     W           Q    Q      E.      E.  E    +W
|---------------------|-----------|----------------------------|---------|
|---------------------|-----------|----------------------------|---------|
|-/14--12-------------|-----------|----------------------------|---------|
|------------12--10---|-12--------|-15---14-----12-------------|---------|
|---------------------|-----------|---------------------12--15-|-(15)----|
|---------------------|-----------|----------------------------|---------|
|
| Gtr IV
|   W                    W           Q.      Q       Q.            W
|-^-3-----------------|-----------|-^3-------3------(3)--------|-^-3-----|
|-^-3-----------------|-----------|-^3-------3------(3)--------|-^-3-----|
|-^-3-----------------|-^4--------|-^3------(3)-----(3)--------|-^-3-----|
|-^-5-----------------|-^2--------|-^5------(5)------5---------|-^-5-----|
|-^-6-----------------|-^3--------|-^6------(6)------6---------|-^-3-----|
|---------------------|-----------|----------------------------|---------|


  Ebmaj7                              Cmaj9
    H         +E   E   S  S  +S   S    +E   E  S  S  +S   E  E   E  E.
|-----------------------------------|----------------------------------|
|-----------------------------------|------15-15---------13----/17-15--|
|--------------------------------14-|-(14)-------14-(14)----14---------|
|-/12--------(12)-15--15-14-(14)----|----------------------------------|
|-----------------------------------|----------------------------------|
|-----------------------------------|----------------------------------|
|
|   Q.    Q        Q.                   W
|-^-3-----3-------(3)---------------|----------------------------------|
|-^-3-----3-------(3)---------------|----------------------------------|
|-^-3----(3)------(3)---------------|-^-4------------------------------|
|-^-5----(5)-------5----------------|-^-2------------------------------|
|-^-6----(6)-------6----------------|-^-3------------------------------|
|-----------------------------------|----------------------------------|


  Ebmaj7                            Gm
   +E   E  +E   E   +E   E   E  E    T  T  S  +E   +H.
|--------------17--(17)-15--13-12-|-12h13p12-(12)-(12)----||
|-(15)-13-(13)--------------------|-----------------------||
|---------------------------------|-----------------------||
|---------------------------------|-----------------------||
|---------------------------------|-----------------------||
|---------------------------------|-----------------------||
|
|   Q.          Q        Q.          W
|-^-3-----------3-------(3)-------|-^3--------------------||
|-^-3-----------3-------(3)-------|-^3--------------------||
|-^-3----------(3)------(3)-------|-^3--------------------||
|-^-5----------(5)-------5--------|-^5--------------------||
|-^-6----------(6)-------6--------|-^3--------------------||
|---------------------------------|-----------------------||


   Bridge
    Ebmaj7
    Gtrs I, II
    S S S S S S S S S S S S S S S S   S S S S S S S S S S S S S S S S
||--3-3-3-3-3-3-3-3-3-3-3-3-3-3-3-3-|-3-3-3-3-3-3-3-3-3-3-3-3-3-3-3-3-|
||o-3-3-3-3-3-3-3-3-3-3-3-3-3-3-3-3-|-3-3-3-3-3-3-3-3-3-3-3-3-3-3-3-3-|
||--3-3-3-3-3-3-3-3-3-3-3-3-3-3-3-3-|-3-3-3-3-3-3-3-3-3-3-3-3-3-3-3-3-|
||--5-5-5-5-5-5-5-5-5-5-5-5-5-5-5-5-|-5-5-5-5-5-5-5-5-5-5-5-5-5-5-5-5-|
||o-6-6-6-6-6-6-6-6-6-6-6-6-6-6-6-6-|-6-6-6-6-6-6-6-6-6-6-6-6-6-6-6-6-|
||----------------------------------|---------------------------------|


  Gm/C
  S S S S S S S S S S S S S S E   S S S S S S S S S S S S S S E
|-------------------------------|--------------------------------||
|-4-4---4---3---4---3---4-3-3---|-4-4---4---3---4---3---4-3-3---o||
|-3-3---3---3---3---3---3-3-3---|-3-3---3---3---3---3---3-3-3----||
|-5-5---5---5---5---5---5-5-5---|-5-5---5---5---5---5---5-5-5----||
|-3-3---3---3---3---3---3-3-3---|-3-3---3---3---3---3---3-3-3---o||
|-------------------------------|--------------------------------||


  Ebmaj7
  Gtr I
   E.      E.      E    E.      E.      E
|-------------------------------------------|
|-10-------------------10-------------------|
|---------10------12-----------10------12---|
|-------------------------------------------|
|-------------------------------------------|
|-------------------------------------------|
|
| Gtr II
|  S  S S  S  S S  S S  S  S S  S  S S  S S
|--3--3-3--3--3-3--3-3--3--3-3--3--3-3--3-3-|
|--3--3-3--3--3-3--3-3--3--3-3--3--3-3--3-3-|
|--3--3-3--3--3-3--3-3--3--3-3--3--3-3--3-3-|
|--5--5-5--5--5-5--5-5--5--5-5--5--5-5--5-5-|
|--6--6-6--6--6-6--6-6--6--6-6--6--6-6--6-6-|
|-------------------------------------------|


   E.      E.      E    E.      E.      E
|-------------------------------------------|
|-10-------------------10-------------------|
|---------10------12-----------10------12---|
|-------------------------------------------|
|-------------------------------------------|
|-------------------------------------------|
|
|  S  S S  S  S S  S S  S  S S  S  S S  S S
|--3--3-3--3--3-3--3-3--3--3-3--3--3-3--3-3-|
|--3--3-3--3--3-3--3-3--3--3-3--3--3-3--3-3-|
|--3--3-3--3--3-3--3-3--3--3-3--3--3-3--3-3-|
|--5--5-5--5--5-5--5-5--5--5-5--5--5-5--5-5-|
|--6--6-6--6--6-6--6-6--6--6-6--6--6-6--6-6-|
|-------------------------------------------|


  Gm/C
   E.      E.      E    E.      E.      E
|-----------------------------------------|
|-----------------11-------------------10-|
|---------12-------------------12---------|
|-----------------------------------------|
|-10-------------------10-----------------|
|-----------------------------------------|
|
|  S  S S  S  S S  S S  S  S S  S  S S  E
|-----------------------------------------|
|--4--4----4----3----4-----3----4--3-3----|
|--3--3----3----3----3-----3----3--3-3----|
|--5--5----5----5----5-----5----5--5-5----|
|--3--3----3----3----3-----3----3--3-3----|
|-----------------------------------------|


   E.      E.      E    E.      E.      E
|-----------------------------------------|
|-----------------10-------------------10-|
|---------12-------------------12---------|
|-----------------------------------------|
|-10-------------------10-----------------|
|-----------------------------------------|
|
|  S  S S  S  S S  S S  S  S S  S  S S  E
|-----------------------------------------|
|--4--4----4----3----4-----3----4--3-3----|
|--3--3----3----3----3-----3----3--3-3----|
|--5--5----5----5----5-----5----5--5-5----|
|--3--3----3----3----3-----3----3--3-3----|
|-----------------------------------------|


  Ebmaj7
   E.      E.      E    E.      E.      E
|-------------------------------------------|
|-10-------------------10-------------------|
|---------10------12-----------10------12---|
|-------------------------------------------|
|-------------------------------------------|
|-------------------------------------------|
|
|  S  S S  S  S S  S S  S  S S  S  S S  S S
|--3--3-3--3--3-3--3-3--3--3-3--3--3-3--3-3-|
|--3--3-3--3--3-3--3-3--3--3-3--3--3-3--3-3-|
|--3--3-3--3--3-3--3-3--3--3-3--3--3-3--3-3-|
|--5--5-5--5--5-5--5-5--5--5-5--5--5-5--5-5-|
|--6--6-6--6--6-6--6-6--6--6-6--6--6-6--6-6-|
|-------------------------------------------|


   E.      E.      E    E.      E.      E
|-------------------------------------------|
|-13-------------------10-------------------|
|---------10------12-----------10------12---|
|-------------------------------------------|
|-------------------------------------------|
|-------------------------------------------|
|
|  S  S S  S  S S  S S  S  S S  S  S S  S S
|--3--3-3--3--3-3--3-3--3--3-3--3--3-3--3-3-|
|--3--3-3--3--3-3--3-3--3--3-3--3--3-3--3-3-|
|--3--3-3--3--3-3--3-3--3--3-3--3--3-3--3-3-|
|--5--5-5--5--5-5--5-5--5--5-5--5--5-5--5-5-|
|--6--6-6--6--6-6--6-6--6--6-6--6--6-6--6-6-|
|-------------------------------------------|


  Gm/C
   E.      E.      E    E.      E.      E
|-----------------------------------------|
|-----------------11-------------------10-|
|---------12-------------------12---------|
|-----------------------------------------|
|-10-------------------10-----------------|
|-----------------------------------------|
|
|  S  S S  S  S S  S S  S  S S  S  S S  E
|-----------------------------------------|
|--4--4----4----3----4-----3----4--3-3----|
|--3--3----3----3----3-----3----3--3-3----|
|--5--5----5----5----5-----5----5--5-5----|
|--3--3----3----3----3-----3----3--3-3----|
|-----------------------------------------|


   E.      E.      E    E.      E.      E
|-----------------------------------------||
|-----------------10-------------------10-||
|---------12-------------------12---------||
|-----------------------------------------||
|-10-------------------10-----------------||
|-----------------------------------------||
|
|  S  S S  S  S S  S S  S  S S  S  S S  E
|-----------------------------------------||
|--4--4----4----3----4-----3----4--3-3----||
|--3--3----3----3----3-----3----3--3-3----||
|--5--5----5----5----5-----5----5--5-5----||
|--3--3----3----3----3-----3----3--3-3----||
|-----------------------------------------||


  Ebmaj7
  Gtr IV
   W          +W
|-^3--------|-(3)----*|
|-^3--------|-(3)----*|
|-^3--------|-(3)----*|
|-^5--------|-(5)----*|
|-^6--------|-(6)----*|
|-----------|--------*|

            
            
Suggest correction
Creating personal tab
Creating personal tab
You can edit any tab online and save it as your Personal.

You can edit, replace or remove any tab part or add personal notes – all changes will be seen only by you.

Personal tabs can be accessed anytime from any device, even offline.
Learn more »
Give kudos to tab author, rate the tab!
1 2 3 4 5
comments
print report bad tab
guest
You may want to rate the tab now too:
select rating
Wanna post a correction for this tab? Suggest correction