Oops, an error
Loading. Please wait.

Where We Belong bass

version 1
version 1

Whole song

Interactive

5,257 views 1 this week
3 commentsread comments
1 2 3 4 5
x 3
add to favorites
×
Save as Personal and add changes to this tab that will be seen only by you. Learn more ›
×
You can save this tab as Personal to edit and correct it or add notes. All changes will be seen only by you. Learn more »
launch autoscroll
font size
0
reset
guitar tuner
edit
Autoscroll
slow
fast
+/-
esc
set tempo
stop
----------------------------------------------------------------------------
			     WHERE WE BELONG - Lostprophets
----------------------------------------------------------------------------

Tabbed By : Tom Godfrey
Tuning: Standard


0:00 - 0:21: No bass

then,
0:22 - 0:35
G|--------------------------------------------------------------------------|
D|--------------------------------------------------------------------------|
A|--------------------------------------------------------------------------|
E|-11~--------6~--------8~--------4~----------------------------------------|

G|--------------------------------------------------------------------------|
D|--------------------------------------------------------------------------|
A|--------------------------------------------------------------------------|
E|-11~--------13~--------8~--------6~---------------------------------------|


0:35 - 0:50 (They're 11's)
G|--------------------------------------------------------------------------|
D|--------------------------------------------------------------------------|
A|--------------------------------------------------------------------------|
E|-1111111111111111-66666666-88888888-44444444------------------------------|

G|--------------------------------------------------------------------------|
D|--------------------------------------------------------------------------|
A|--------------------------------------------------------------------------|
E|-1111111111111111-66666666-44444444-44444444------------------------------|


0:50 - 0:57 - No bass


0:58 - 1:26
G|--------------------------------------------------------------------------|
D|--------------------------------------------------------------------------|
A|--------------------------------------------------------------------------|
E|-11111111----6666----8888----4444-(x2)------------------------------------|

G|--------------------------------------------------------------------------|
D|--------------------------------------------------------------------------|
A|--------------------------------------------------------------------------|
E|-13~11111111----6666----8888----4444--------------------------------------|

G|--------------------------------------------------------------------------|
D|--------------------------------------------------------------------------|
A|--------------------------------------------------------------------------|
E|-11111111----6666----8888----4444-----------------------------------------|


1:27 - 1:41
G|--------------------------------------------------------------------------|
D|--------------------------------------------------------------------------|
A|-66666666\1313131313131313-44444444\1111111111111111-(x2)-----------------|
E|--------------------------------------------------------------------------|


1:42 - 1:47
G|--------------------------------------------------------------------------|
D|--------------------------------------------------------------------------|
A|--------------------------------------------------------------------------|
E|-666666666666666666666666-------------------------------------------------|


1:49 - 2:02
G|--------------------------------------------------------------------------|
D|--------------------------------------------------------------------------|
A|--------------------------------------------------------------------------|
E|-1111111111111111-66666666-88888888-44444444------------------------------|

G|--------------------------------------------------------------------------|
D|--------------------------------------------------------------------------|
A|--------------------------------------------------------------------------|
E|-1111111111111111-66666666-44444444-44444444------------------------------|


2:03 - 2:18
G|--------------------------------------------------------------------------|
D|--------------------------------------------------------------------------|
A|--------------------------------------------------------------------------|
E|-11111111----6666----8888----4444-(x2)------------------------------------|


2:18 - 2:32
G|--------------------------------------------------------------------------|
D|--------------------------------------------------------------------------|
A|-66666666\1313131313131313-44444444\1111111111111111-(x2)-----------------|
E|--------------------------------------------------------------------------|


2:32 - 2:38
G|--------------------------------------------------------------------------|
D|--------------------------------------------------------------------------|
A|--------------------------------------------------------------------------|
E|-666666666666666666666666-------------------------------------------------|


2:40 - 3:09
G|--------------------------------------------------------------------------|
D|--------------------------------------------------------------------------|
A|--------------------------------------------------------------------------|
E|-1111111111111111-66666666-88888888-44444444------------------------------|

G|--------------------------------------------------------------------------|
D|--------------------------------------------------------------------------|
A|--------------------------------------------------------------------------|
E|-1111111111111111-66666666-44444444-44444444-(x2)-------------------------|


3:10 - 3:30: No Bass


3:31 - 3:44
G|--------------------------------------------------------------------------|
D|--------------------------------------------------------------------------|
A|--------------------------------------------------------------------------|
E|-11~--------6~--------8~--------4~----------------------------------------|

G|--------------------------------------------------------------------------|
D|--------------------------------------------------------------------------|
A|--------------------------------------------------------------------------|
E|-11~--------13~--------8~--------6~---------------------------------------|


3:45 - 4:30
G|--------------------------------------------------------------------------|
D|--------------------------------------------------------------------------|
A|--------------------------------------------------------------------------|
E|-1111111111111111-66666666-88888888-44444444------------------------------|

G|--------------------------------------------------------------------------|
D|--------------------------------------------------------------------------|
A|--------------------------------------------------------------------------|
E|-1111111111111111-66666666-44444444-44444444-(x3)-------------------------|

| /  slide up
| \  slide down
| h  hammer-on
| p  pull-off
| ~  vibrato
| +  harmonic
| x  Mute note
===============================================================================

            
            
Suggest correction
Creating personal tab
Creating personal tab
You can edit any tab online and save it as your Personal.

You can edit, replace or remove any tab part or add personal notes – all changes will be seen only by you.

Personal tabs can be accessed anytime from any device, even offline.
Learn more »
Give kudos to tab author, rate the tab!
1 2 3 4 5
comments
print report bad tab
3 comments total.
+1 reply
TomYFTT 10 Jan 17, 2011 10:35 AM

Sounds a lot better in Drop D

0 reply
tomgodfrey 72 May 08, 2011 06:03 AM

Yeah, when I originally tabbed this (was unregistered at the time) I did mean to put it in drop D. Sorry for any confusion guys.

0 reply
CuriousSnake 10 Feb 10, 2015 09:58 AM

Tuning should be DADG.

guest
Wanna post a correction for this tab? Suggest correction