Oops, an error
Loading. Please wait.

Hangin Round bass

76 views 3 this week
no commentswrite comment
1 2 3 4 5
3 more votes to show rating
add to favorites
×
Save as Personal and add changes to this tab that will be seen only by you. Learn more ›
×
You can save this tab as Personal to edit and correct it or add notes. All changes will be seen only by you. Learn more »
launch autoscroll
font size
0
reset
guitar tuner
edit
Autoscroll
slow
fast
+/-
esc
set tempo
stop
Lou Reed - Hangin' 'Round
from Transformer (1972)

Tabbed by Leo Chiurco

[Intro]
G|---------------------------------|---------------------------------|
D|---------------------------------|---------------------------------|
A|---------------------------------|---------------------------------|
E|------------------------12-------|-3-----------3---3---3-----------|
   1 + + + 2 + + + 3 + + + 4 + + +   1 + + + 2 + + + 3 + + + 4 + + +
                                 
G|---------------------------------|---------------------------------|
D|---------------------------------|---------------------------------|
A|---------------------------------|---------------------------------|
E|-3-----------3---3---3-----------|-3-----------3---3---3-----------|
   1 + + + 2 + + + 3 + + + 4 + + +   1 + + + 2 + + + 3 + + + 4 + + +

                                   [Verse 1]
G|---------------------------------|---------------------------------|
D|---------------------------------|---------------------------------|
A|---------------------------------|---------------------------------|
E|-3-3---------3---3---3-----------|-3-----------3---3---3-----------|
   1 + + + 2 + + + 3 + + + 4 + + +   1 + + + 2 + + + 3 + + + 4 + + +

G|---------------------------------|---------------------------------|
D|---------------------------------|---------------------------------|
A|-----------------------------5---|-3-----------3---3---3-----------|
E|-3-----------3---3---3-----------|---------------------------------|
   1 + + + 2 + + + 3 + + + 4 + + +   1 + + + 2 + + + 3 + + + 4 + + +

G|---------------------------------|---------------------------------|
D|---------------------------------|---------------------------------|
A|---------------------------------|---------------------------------|
E|-3-----------3---3---3-----------|-3-----------3---3---3-----------|
   1 + + + 2 + + + 3 + + + 4 + + +   1 + + + 2 + + + 3 + + + 4 + + +

G|---------------------------------|---------------------------------|
D|---------------------------------|---------------------------------|
A|---------------------------------|---------------------------------|
E|-3-----------3---3---3-----------|-3-----------3---3---3-----------|
   1 + + + 2 + + + 3 + + + 4 + + +   1 + + + 2 + + + 3 + + + 4 + + +

G|---------------------------------|---------------------------------|
D|---------------------------------|---------------------------------|
A|-3-----------3---3---3-----------|---------------------------------|
E|---------------------------------|-3-----------3---3---3-----------|
   1 + + + 2 + + + 3 + + + 4 + + +   1 + + + 2 + + + 3 + + + 4 + + +

                                   [Pre-chorus 1]
G|---------------------------------|---------------------------------|
D|---------------------------------|---------------------------------|
A|---------------------------------|-------------2---3---3-------3---|
E|-3-----------3---3-----------3---|-5-------------------------------|
   1 + + + 2 + + + 3 + + + 4 + + +   1 + + + 2 + + + 3 + + + 4 + + +

G|---------------------------------|---------------------------------|
D|-5---5---2-----------------------|-----------------------------2---|
A|-----------------5-------2-------|-------------2---3---3-----------|
E|---------------------------------|-5-------------------------------|
   1 + + + 2 + + + 3 + + + 4 + + +   1 + + + 2 + + + 3 + + + 4 + + +

G|---------------------------------|---------------------------------|
D|-5---5---2-----------------------|-----------------------------2---|
A|-----------------5-------2-------|-------------2---3---3-----------|
E|---------------------------------|-5-------------------------------|
   1 + + + 2 + + + 3 + + + 4 + + +   1 + + + 2 + + + 3 + + + 4 + + +

G|---------------------------------|---------------------------------|
D|-5---5---2-----------------------|---------------------------------|
A|-----------------5---2---3---4---|-5-----------5---5-----------5---|
E|---------------------------------|---------------------------------|
   1 + + + 2 + + + 3 + + + 4 + + +   1 + + + 2 + + + 3 + + + 4 + + +

                                   [Verse 2]
G|---------------------------------|---------------------------------|
D|---------------------------------|---------------------------------|
A|-5-----------5-------3---2-------|---------------------------------|
E|-----------------------------5---|-3-----------3---3---3-------3---|
   1 + + + 2 + + + 3 + + + 4 + + +   1 + + + 2 + + + 3 + + + 4 + + +

G|---------------------------------|---------------------------------|
D|---------------------------------|---------------------------------|
A|-----------------------------2---|-3-----------3---3---3-------5---|
E|-3---3-------3---3---3-----------|---------------------------------|
   1 + + + 2 + + + 3 + + + 4 + + +   1 + + + 2 + + + 3 + + + 4 + + +

G|---------------------------------|---------------------------------|
D|---------------------------------|---------------------------------|
A|-----------------------------5---|-----------------------------5---|
E|-3---3-------3---3---3-----------|-3-----------3---3---3-----------|
   1 + + + 2 + + + 3 + + + 4 + + +   1 + + + 2 + + + 3 + + + 4 + + +

G|---------------------------------|---------------------------------|
D|---------------------------------|---------------------------------|
A|-----------------------------5---|-----------------------------2---|
E|-3-----------3---3---3-----------|-3-----------3---3---3-----------|
   1 + + + 2 + + + 3 + + + 4 + + +   1 + + + 2 + + + 3 + + + 4 + + +

G|---------------------------------|---------------------------------|
D|---------------------------------|---------------------------------|
A|-3-----------3---3-----------5---|---------------------5-----------|
E|---------------------------------|-3-----------3---3-------3-------|
   1 + + + 2 + + + 3 + + + 4 + + +   1 + + + 2 + + + 3 + + + 4 + + +

                                   [Pre-chorus 2]
G|---------------------------------|---------------------------------|
D|---------------------------------|-----------------------------2---|
A|---------------------------------|-------------2---3---3-----------|
E|-5-----------3-----------3-------|-5-------------------------------|
   1 + + + 2 + + + 3 + + + 4 + + +   1 + + + 2 + + + 3 + + + 4 + + +

G|---------------------------------|---------------------------------|
D|-5---5---2-----------------------|-----------------------------2---|
A|-----------------5-------2-------|-------------2---3---3-----------|
E|---------------------------------|-5-------------------------------|
   1 + + + 2 + + + 3 + + + 4 + + +   1 + + + 2 + + + 3 + + + 4 + + +

G|---------------------------------|---------------------------------|
D|-5---5---2-----------------------|-----------------------------2---|
A|-----------------5-------2-------|-------------2---3---3-----------|
E|---------------------------------|-5-------------------------------|
   1 + + + 2 + + + 3 + + + 4 + + +   1 + + + 2 + + + 3 + + + 4 + + +

G|---------------------------------|----------------------------7/---|
D|-5---5---2-----------------------|-----------------4---7-----------|
A|-----------------5---2---3---4---|-5-----------5-------------------|
E|---------------------------------|---------------------------------|
   1 + + + 2 + + + 3 + + + 4 + + +   1 + + + 2 + + + 3 + + + 4 + + +

                                   [Chorus 1]
G|10-------7-----------------------|---------------------------------|
D|-----------------9-------9-------|---------------------------------|
A|---------------------------------|---------------------------------|
E|---------------------------------|-3-----------3---3---3-----------|
   1 + + + 2 + + + 3 + + + 4 + + +   1 + + + 2 + + + 3 + + + 4 + + +

G|---------------------------------|---------------------------------|
D|---------------------------------|---------------------------------|
A|---------------------------------|-3---3-------3---3---3-------3---|
E|-3---3-------3---3---3-------3---|---------------------------------|
   1 + + + 2 + + + 3 + + + 4 + + +   1 + + + 2 + + + 3 + + + 4 + + +

G|---------------------------------|---------------------------------|
D|---------------------------------|---------------------------------|
A|-3---3-------3---3-----------5---|---------------------------------|
E|---------------------------------|-3---3-------3---3---3-------3---|
   1 + + + 2 + + + 3 + + + 4 + + +   1 + + + 2 + + + 3 + + + 4 + + +

G|---------------------------------|---------------------------------|
D|---------------------------------|---------------------------------|
A|-------------------------2---3---|-5---5-------5---5---5-------5---|
E|-3---3-------3---3---3-----------|---------------------------------|
   1 + + + 2 + + + 3 + + + 4 + + +   1 + + + 2 + + + 3 + + + 4 + + +

G|---------------------------------|---------------------------------|
D|---------------------------------|---------------------------------|
A|-5---5---3---3---2---2-----------|---------------------------------|
E|-------------------------5-------|-3-----------3---3---3-------3---|
   1 + + + 2 + + + 3 + + + 4 + + +   1 + + + 2 + + + 3 + + + 4 + + +

G|---------------------------------|---------------------------------|
D|---------------------------------|---------------------------------|
A|-----------------------------2---|-3---3-------3---3---3-------3---|
E|-3---3-------3---3---3-----------|---------------------------------|
   1 + + + 2 + + + 3 + + + 4 + + +   1 + + + 2 + + + 3 + + + 4 + + +

G|---------------------------------|---------------------------------|
D|---------------------------------|---------------------------------|
A|-3---3-------3---2---------------|---------------------------------|
E|-------------------------5-------|-3-----------3---3---3-------3---|
   1 + + + 2 + + + 3 + + + 4 + + +   1 + + + 2 + + + 3 + + + 4 + + +

G|---------------------------------|---------------------------------|
D|---------------------------------|---------------------------------|
A|---------------------7-----------|-5-----------5---5---5-------5---|
E|-3---3-------3---7-----------7---|---------------------------------|
   1 + + + 2 + + + 3 + + + 4 + + +   1 + + + 2 + + + 3 + + + 4 + + +

G|---------------------------------|---------------------------------|
D|---------------------------------|---------------------------------|
A|/9-------7-------5---------------|---------------------------------|
E|-------------------------7-------|-3-----------3---3---3-------3---|
   1 + + + 2 + + + 3 + + + 4 + + +   1 + + + 2 + + + 3 + + + 4 + + +

G|---------------------------------|---------------------------------|
D|---------------------------------|---------------------------------|
A|---------------------------------|---------------------------------|
E|-3-----------3---3---3-------3---|-3-----------3---3---3-------3---|
   1 + + + 2 + + + 3 + + + 4 + + +   1 + + + 2 + + + 3 + + + 4 + + +

                                   [Verse 3]
G|---------------------------------|---------------------------------|
D|---------------------------------|---------------------------------|
A|---------------------------------|---------------------------------|
E|-3-----------3---3---3-------0---|-3-----------3---3---3-------3---|
   1 + + + 2 + + + 3 + + + 4 + + +   1 + + + 2 + + + 3 + + + 4 + + +

G|---------------------------------|---------------------------------|
D|---------------------------------|---------------------------------|
A|-----------------------------2---|-3-----------3---3---3-------5---|
E|-3-----------3---3---3-----------|---------------------------------|
   1 + + + 2 + + + 3 + + + 4 + + +   1 + + + 2 + + + 3 + + + 4 + + +

G|---------------------------------|---------------------------------|
D|---------------------------------|---------------------------------|
A|-----------------------------5---|---------------------------------|
E|-3-----------3---3---------------|-3-----------3---3-----------3---|
   1 + + + 2 + + + 3 + + + 4 + + +   1 + + + 2 + + + 3 + + + 4 + + +

G|---------------------------------|---------------------------------|
D|---------------------------------|---------------------------------|
A|---------------------------------|-----------------------------2---|
E|-3-----------3---3-----------3---|-3-----------3---3---------------|
   1 + + + 2 + + + 3 + + + 4 + + +   1 + + + 2 + + + 3 + + + 4 + + +

G|---------------------------------|---------------------------------|
D|---------------------------------|---------------------------------|
A|-3-----------3---3-----------5---|---------------------------------|
E|---------------------------------|-3-----------3---3-----------3---|
   1 + + + 2 + + + 3 + + + 4 + + +   1 + + + 2 + + + 3 + + + 4 + + +

                                   [Pre-chorus 3]
G|---------------------------------|---------------------------------|
D|---------------------------------|-----------------------------2---|
A|---------------------------------|-------------2---3---------------|
E|-3-----------3---3-----------3---|-5-------------------------------|
   1 + + + 2 + + + 3 + + + 4 + + +   1 + + + 2 + + + 3 + + + 4 + + +

G|---------------------------------|---------------------------------|
D|-5---5---2-----------------------|---------------------2-------4---|
A|-----------------5-------2-------|-------------2---3-------5-------|
E|---------------------------------|-5-------------------------------|
   1 + + + 2 + + + 3 + + + 4 + + +   1 + + + 2 + + + 3 + + + 4 + + +

G|---------------------------------|---------------------------------|
D|-5---5---2-----------------------|-----------------------------2---|
A|-----------------5-------2-------|-------------2---3---------------|
E|---------------------------------|-5-------------------------------|
   1 + + + 2 + + + 3 + + + 4 + + +   1 + + + 2 + + + 3 + + + 4 + + +

G|---------------------------------|---------------------------------|
D|-5---5---2-----------------------|---------------------------------|
A|-----------------5---2---3---4---|-5-----------5---5-----------5---|
E|---------------------------------|---------------------------------|
   1 + + + 2 + + + 3 + + + 4 + + +   1 + + + 2 + + + 3 + + + 4 + + +

                                   [Verse 4]
G|10-------7-----------------------|---------------------------------|
D|-----------------9---------------|---------------------------------|
A|---------------------------------|---------------------------------|
E|-------------------------7-------|-3-----------3---3---3-------3---|
   1 + + + 2 + + + 3 + + + 4 + + +   1 + + + 2 + + + 3 + + + 4 + + +

G|---------------------------------|---------------------------------|
D|---------------------------------|---------------------------------|
A|---------------------------2-----|-3---3-------3---3-----------5---|
E|-3---3-------3---3---3-----------|---------------------------------|
   1 + + + 2 + + + 3 + + + 4 + + +   1 + + + 2 + + + 3 + + + 4 + + +

G|---------------------------------|---------------------------------|
D|---------------------------------|---------------------------------|
A|---------------------------------|---------------------------------|
E|-3---3-------3---3-----------0---|-3-----------3---3-----------0---|
   1 + + + 2 + + + 3 + + + 4 + + +   1 + + + 2 + + + 3 + + + 4 + + +

G|---------------------------------|---------------------------------|
D|---------------------------------|---------------------------------|
A|---------------------------------|-----------------------------2---|
E|-3-----------3---3-----------0---|-3-----------3---3---------------|
   1 + + + 2 + + + 3 + + + 4 + + +   1 + + + 2 + + + 3 + + + 4 + + +

G|---------------------------------|---------------------------------|
D|---------------------------------|---------------------------------|
A|-3-----------3---3---3-------5---|---------------------------------|
E|---------------------------------|-3-----------3---3-----------3---|
   1 + + + 2 + + + 3 + + + 4 + + +   1 + + + 2 + + + 3 + + + 4 + + +

                                   [Pre-chorus 4]
G|---------------------------------|---------------------------------|
D|---------------------------------|---------------------2-------4---|
A|---------------------5-----------|-------------2---3-------5-------|
E|-3-----------3---3-------3-------|-5-------------------------------|
   1 + + + 2 + + + 3 + + + 4 + + +   1 + + + 2 + + + 3 + + + 4 + + +

G|---------------------------------|---------------------------------|
D|-5---5---2-----------------------|---------------------2-------4---|
A|-----------------5-------2-------|-------------2---3-------5-------|
E|---------------------------------|-5-------------------------------|
   1 + + + 2 + + + 3 + + + 4 + + +   1 + + + 2 + + + 3 + + + 4 + + +

G|---------------------------------|---------------------------------|
D|-5---5---2-----------------------|---------------------2-------4---|
A|-----------------5-------2---1---|-0-----------2---3-------5-------|
E|---------------------------------|---------------------------------|
   1 + + + 2 + + + 3 + + + 4 + + +   1 + + + 2 + + + 3 + + + 4 + + +

G|---------------------------------|---------------------------------|
D|-5---5---2-----------------------|---------------------------------|
A|-----------------5---2---3---4---|-5-----------5---5-----------5---|
E|---------------------------------|---------------------------------|
   1 + + + 2 + + + 3 + + + 4 + + +   1 + + + 2 + + + 3 + + + 4 + + +

                                   [Chorus 2]
G|/9------10-------7---------------|---------------------------------|
D|-------------------------9-------|---------------------------------|
A|---------------------------------|---------------------------------|
E|---------------------------------|-3-----------3---3---3-------3---|
   1 + + + 2 + + + 3 + + + 4 + + +   1 + + + 2 + + + 3 + + + 4 + + +

G|---------------------------------|---------------------------------|
D|---------------------------------|---------------------------------|
A|-----------------------------2---|-3---3-------3---3---3-------3---|
E|-3-----------3---3---3-----------|---------------------------------|
   1 + + + 2 + + + 3 + + + 4 + + +   1 + + + 2 + + + 3 + + + 4 + + +

G|---------------------------------|---------------------------------|
D|---------------------------------|---------------------------------|
A|-3---3-------3---3---3-------5---|---------------------------------|
E|---------------------------------|-3---3-------3---3---3-------0---|
   1 + + + 2 + + + 3 + + + 4 + + +   1 + + + 2 + + + 3 + + + 4 + + +

G|---------------------------------|---------------------------------|
D|---------------------------------|---------------------------------|
A|---------2---2---3---3---4---0---|-5-----------5---5---5-------5---|
E|-3---3---------------------------|---------------------------------|
   1 + + + 2 + + + 3 + + + 4 + + +   1 + + + 2 + + + 3 + + + 4 + + +

G|---------------------------------|---------------------------------|
D|---------------------------------|---------------------------------|
A|-5---0---7---8---9-------5-------|---------------------------------|
E|---------------------------------|-3-----------3---3---3-------3---|
   1 + + + 2 + + + 3 + + + 4 + + +   1 + + + 2 + + + 3 + + + 4 + + +

G|---------------------------------|---------------------------------|
D|---------------------------------|---------------------------------|
A|-----------------------------2---|-3---3-------3---3---3-------3---|
E|-3-----------3---3---3-----------|---------------------------------|
   1 + + + 2 + + + 3 + + + 4 + + +   1 + + + 2 + + + 3 + + + 4 + + +

G|---------------------------------|---------------------------------|
D|---------------------------------|---------------------------------|
A|-3-----------3---3-----------5---|---------------------------------|
E|---------------------------------|-3-----------3---3---3-------3---|
   1 + + + 2 + + + 3 + + + 4 + + +   1 + + + 2 + + + 3 + + + 4 + + +

G|---------------------------------|---------------------------------|
D|---------------------------------|---------4---4---5---5---7---7---|
A|-----------------2---2---3---4---|-5---5---------------------------|
E|-3-----------3-------------------|---------------------------------|
   1 + + + 2 + + + 3 + + + 4 + + +   1 + + + 2 + + + 3 + + + 4 + + +

                                   [Outro]
G|---------------------------------|---------------------------------|
D|---------------------------------|---------------------------------|
A|-5---5---3---3---2---2-----------|---------------------5---7-------|
E|-------------------------5---5---|-3-----------3---7---------------|
   1 + + + 2 + + + 3 + + + 4 + + +   1 + + + 2 + + + 3 + + + 4 + + +

G|---------------------------------|---------------------------------|
D|---------------------------------|---------------------------------|
A|---------------------5---7-------|---------------------5---7-------|
E|-3-----------5-h-7---------------|-3-----------5-h-7---------------|
   1 + + + 2 + + + 3 + + + 4 + + +   1 + + + 2 + + + 3 + + + 4 + + +

G|---------------------------------|---------------------------------|
D|---------------------------------|---------------------------------|
A|---------------------5---7-------|---------------------5---7-------|
E|-3-----------5-h-7---------------|-3-----------5-h-7---------------|
   1 + + + 2 + + + 3 + + + 4 + + +   1 + + + 2 + + + 3 + + + 4 + + +

G|---------------------------------|---------------------------------|
D|---------------------------------|---------------------------------|
A|---------------------5---7-------|---------------------5---7-------|
E|-3---3-------5-h-7---------------|-3-----------5-h-7---------------|
   1 + + + 2 + + + 3 + + + 4 + + +   1 + + + 2 + + + 3 + + + 4 + + +

G|---------------------------------|---------------------------------|
D|---------------------------------|---------------------------------|
A|---------------------5---7-------|---------------------5---7-------|
E|-3---3-------5-h-7---------------|-3-----------5-h-7---------------|
   1 + + + 2 + + + 3 + + + 4 + + +   1 + + + 2 + + + 3 + + + 4 + + +

G|---------------------------------|---------------------------------|
D|---------------------------------|---------------------------------|
A|---------------------5---7-------|---------------------5---7-------|
E|-3---3-------5-h-7---------------|-3---3-------5-h-7---------------|
   1 + + + 2 + + + 3 + + + 4 + + +   1 + + + 2 + + + 3 + + + 4 + + +

G|---------------------------------|---------------------------------|
D|-5---5---------------------------|---------------------------------|
A|---------7-------5---------------|---------------------5---7-------|
E|-------------------------7---5---|-3---3-------5-h-7---------------|
   1 + + + 2 + + + 3 + + + 4 + + +   1 + + + 2 + + + 3 + + + 4 + + +


************************************

| /  Slide up
| h  Hammer-on

************************************

            
            
Suggest correction
Creating personal tab
Creating personal tab
You can edit any tab online and save it as your Personal.

You can edit, replace or remove any tab part or add personal notes – all changes will be seen only by you.

Personal tabs can be accessed anytime from any device, even offline.
Learn more »
Give kudos to tab author, rate the tab!
1 2 3 4 5
comments
print report bad tab
guest
You may want to rate the tab now too:
select rating
Wanna post a correction for this tab? Suggest correction