Oops, an error
Loading. Please wait.

Dragon bass

372 views 1 this week
no commentswrite comment
1 2 3 4 5
3 more votes to show rating
add to favorites
×
Save as Personal and add changes to this tab that will be seen only by you. Learn more ›
×
You can save this tab as Personal to edit and correct it or add notes. All changes will be seen only by you. Learn more »
launch autoscroll
font size
0
reset
guitar tuner
edit
Autoscroll
slow
fast
+/-
esc
set tempo
stop
-------------------------------------------------------------------------------
                             Dragon - Lou Reed And Metallica
-------------------------------------------------------------------------------

                             I AM THE TABLE!!!

                    (i had to get that outta my system)


Tabbed by: MetallicaDMRTL

Tuning: Standard BEADG

Hey guys well if ur reading this and going to play it u are a brave soul, i have to say 
the view, dragon and iced honey are tolerable but ugh whatever here u go if u like lulu 
then heres a winner, plus its so damn long i broke into sections

Intro 0:00
G|------------------|------------------|------------------|----------|
D|*-----------------|------------------|------------------|----------|
A|------------------|------------------|------------------|----------|
E|*-----------------|------------------|------------------|----------|
B|-5-5-5-3-3-6-(6)--|-5-5-5-3-3-6-(6)--|-5-5-5-3-3-6-(6)--|-3--2-(2)-|

G|---------|----------|----------------|
D|---------|----------|---------------*|
A|---------|----------|----------------| x6
E|---------|----------|---------------*|
B|-2h3-2h3-|-3--3-3-3-|-3--3----18////-|

Noise solo 4:54
G|------------------|------------------|------------------|----------|
D|*-----------------|------------------|------------------|----------|
A|------------------|------------------|------------------|----------|
E|*-----------------|------------------|------------------|----------|
B|-5-5-5-3-3-6-(6)--|-5-5-5-3-3-6-(6)--|-5-5-5-3-3-6-(6)--|-3--2-(2)-|

G|---------|----------|----------------|
D|---------|----------|---------------*|
A|---------|----------|----------------| x2
E|---------|----------|---------------*|
B|-2h3-2h3-|-3--3-3-3-|-3--3----18////-|

Verse? 5:35
G|------------------|------------------|------------------|----------|
D|*-----------------|------------------|------------------|----------|
A|------------------|------------------|------------------|----------|
E|*-----------------|------------------|------------------|----------|
B|-5-5-5-3-3-6-(6)--|-5-5-5-3-3-6-(6)--|-5-5-5-3-3-6-(6)--|-3--2-(2)-|

G|---------|----------|----------------|
D|---------|----------|---------------*|
A|---------|----------|----------------| x2
E|---------|----------|---------------*|
B|-2h3-2h3-|-3--3-3-3-|-3--3----18////-|

Verse? again? 6:17
G|------------------|------------------|------------------|----------|
D|*-----------------|------------------|------------------|----------|
A|------------------|------------------|------------------|----------|
E|*-----------------|------------------|------------------|----------|
B|-5-5-5-3-3-6-(6)--|-5-5-5-3-3-6-(6)--|-5-5-5-3-3-6-(6)--|-3--2-(2)-|

G|---------|----------|----------------|    if u hear a opening
D|---------|----------|---------------*|    just jam it out with fills that
A|---------|----------|----------------| x8  go to the beat
E|---------|----------|---------------*|
B|-2h3-2h3-|-3--3-3-3-|-3--3----18////-|

Verse? idk? 9:00
G|------------------|------------------|------------------|----------|
D|*-----------------|------------------|------------------|----------|
A|------------------|------------------|------------------|----------|
E|*-----------------|------------------|------------------|----------|
B|-5-5-5-3-3-6-(6)--|-5-5-5-3-3-6-(6)--|-5-5-5-3-3-6-(6)--|-3--2-(2)-|

G|------------------|----------|----------------|
D|------------------|----------|---------------*|
A|-5h7--5-4---------|----------|----------------| x2
E|------------------|----------|---------------*|
B|----------2h3-2h3-|-3--3-3-3-|-3--3----18////-|

Noise Solo 2 9:40
G|------------------|------------------|------------------|------------------|
D|*-----------------|------------------|------------------|------------------| x2
A|------------------|------------------|------------------|------------------|
E|*-----------------|------------------|------------------|------------------|
B|-5-5-5-3-3-6-(6)--|-5-5-5-3-3-6-(6)--|-5-5-5-3-3-6-(6)--|-5-5-5-3-3-6-(6)--|

G|----------|---------|-----|
D|----------|---------|-----|
A|----------|---------|-----|
E|----------|---------|-----|
B|-3--2-(2)-|-2h3-2h3-|-3---|

G|-----------|
D|-----------|
A|-----------|x13 follow drums here simple enough
E|-----------|
B|-3---3-3-3-|

Well there u have it, dragon the first of many for lulu, and btw at "Verse?again?" from 
there on trujillos just puts in a lot of fills there easy enough its just lots of the 
last note get strummed to the beat so its easy enough.

and also this part

G|------------------|
D|------------------|
A|-5h7--5-4---------|
E|------------------|
B|----------2h3-2h3-|

the A string fill is played a lot i believe but i cant hear it but its most likely a 
fill everytime, so play what u want its optional

More to Come

MetallicaDMRTL

                              \m/Metallica\m/

            
            
Suggest correction
Creating personal tab
Creating personal tab
You can edit any tab online and save it as your Personal.

You can edit, replace or remove any tab part or add personal notes – all changes will be seen only by you.

Personal tabs can be accessed anytime from any device, even offline.
Learn more »
Give kudos to tab author, rate the tab!
1 2 3 4 5
comments
print report bad tab
guest
You may want to rate the tab now too:
select rating
Wanna post a correction for this tab? Suggest correction