Oops, an error
Loading. Please wait.

Pumping Blood bass

711 views 3 this week
no commentswrite comment
1 2 3 4 5
2 more votes to show rating
add to favorites
×
Save as Personal and add changes to this tab that will be seen only by you. Learn more ›
×
You can save this tab as Personal to edit and correct it or add notes. All changes will be seen only by you. Learn more »
launch autoscroll
font size
0
reset
guitar tuner
edit
Autoscroll
slow
fast
+/-
esc
set tempo
stop
Author
Difficulty
-------------------------------------------------------------------------------
                             Pumping Blood - Lou Reed And Metallica
-------------------------------------------------------------------------------
Tabbed by:MetallicaDMRTL
Tuning: BEADG

well idk what to say but heres pumping blood another fun lulu song, enjoi

16 bass pedals then
G|---------------------------------------------|
D|---------------------------------------------|
A|---------------------------------------------| x2
E|-0-5-7--0-0-0-5-7--0-0-0-5-7--0-0-0-5-7--0-0-|
B|---------------------------------------------|

G|-----------------------------------------------|
D|-----------------------------------------------|
A|-----------------------------------------------| x2
E|-0-5-7--0-0-0-5-7--0-0-0-5-7--0-0-0-5-7--00-00-|
B|-----------------------------------------------|

G|-----------------------------------------------------|
D|-----------------------------------------------------|
A|-----------------------------------------------------| x4
E|-0-5-7--00-00-0-5-7--00-00-0-5-7--00-00-0-5-7--00-00-|
B|-----------------------------------------------------|

G|---------|
D|---------|
A|---------|
E|-0-5-(7)-|
B|---------|

G|---------|-------------------|
D|---------|-------------------|
A|-0-2-(3)-|-3p2-2p0-----------|
E|---------|-------------------|
B|---------|-------------------|

G|-------|
D|-------|
A|-------|
E|-------|
B|-0h1p0-|

G|-------------|
D|-------------|
A|-------------| x8
E|-10\\\\------|
B|-------5////-|

G|------|
D|------|
A|------| now play open e's to the drums and guitars and until u get
E|-0----|  to the fast drum roll before the fast part
B|------|

G|------|
D|------|
A|------| play to the beat of the snare roll
E|-0----|
B|------|

G|---------|
D|---------|
A|---------|
E|---------|
B|-5-5-3-5-|

G|-----------------|---------|
D|-----------------|---------|
A|-----------------|---------| x9
E|-----------------|---------|
B|-5-5-5-5-5-5-5-5-|-5-5-3-5-|

G|------|
D|------|
A|------| play really fast and keep speeding up and toss in random slides
E|------|
B|-5----|

G|-----------------|-----------------|---------|
D|-----------------|-----------------|---------|
A|-----------------|-----------------|---------| x6
E|-----------------|-----------------|---------|
B|-5-5-5-5-5-5-5-5-|-5-5-5-5-5-5-5-5-|-5-5-3-5-|

G|---------|
D|---------|
A|---------| x8
E|---------|
B|-5-5-3-5-|

G|---------------------|
D|---------------------|
A|---------------------|
E|---------------------|
B|-18\\\\\\\\\\\\\\\\\-|

6:44  3 bass pedals then
G|---------|
D|---------|
A|-5h7-5-5-|
E|---------|
B|---------|

G|---------------------------------------------|
D|---------------------------------------------|
A|---------------------------------------------| x2
E|---------------------------------------------|
B|--5-5-5-3-5--5-5-5-3-5--5-5-5-3-5--5-5-5-3-5-|

G|------------------------------------|
D|------------------------------------|
A|------------------------------------|
E|------------------------------------|
B|--5-5-5-3-5--5-5-5-3-5--5-5-5-3-(5)-|

well heres pumping blood idk how good this is the song is very just whatever u play a 
bunch of random open strums, and before u down vote see if u can make a better one cause 
this one is super fucking hard to tab out at least, but here u ya go everyone enjoi

MetallicaDMRTL

                           \m/Metallica\m/

            
            
Suggest correction
Creating personal tab
Creating personal tab
You can edit any tab online and save it as your Personal.

You can edit, replace or remove any tab part or add personal notes – all changes will be seen only by you.

Personal tabs can be accessed anytime from any device, even offline.
Learn more »
Give kudos to tab author, rate the tab!
1 2 3 4 5
comments
print report bad tab
guest
You may want to rate the tab now too:
select rating
Wanna post a correction for this tab? Suggest correction