Oops, an error
Loading. Please wait.

Psalm 30 - Feesklere chords

166 views 1 this week
no commentswrite comment
1 2 3 4 5
3 more votes to show rating
add to favorites
×
Save as Personal and add changes to this tab that will be seen only by you. Learn more ›
×
You can save this tab as Personal to edit and correct it or add notes. All changes will be seen only by you. Learn more »
launch autoscroll
font size
0
reset
transpose
0
reset
display chords
guitar tuner
edit
Autoscroll
slow
fast
+/-
esc
set tempo
stop
Author
Difficulty
About this tab version
Here is the Chords, added is the patterns to play over the A and D in the verse, added also is the intro pattern. Was this info helpful? Yes No
Strumming Is this strumming pattern correct? Yes No
Intor and verse 135 bpm
1
&
2
&
3
&
4
&
Listen
[Intro]

  A
e|---------------------------------------------------------------------------|
B|---------------------------------------------------------------------------|
G|---------------------------------------------------------------------------|
D|7-7-7-7-7-7-7-7-6-6-6-6-6-6-6-6-11-11-11-11-11-11-11-11-6-6-6-6-6-6-6-6----|
A|0-0-0-0-0-0-0-0-0-0-0-0-0-0-0-0-0- 0- 0- 0- 0- 0- 0- 0- 0-0-0-0-0-0-0-0----|
E|---------------------------------------------------------------------------|
  1   2   3   4   1   2   3   4   1     2     3     4     1   2   3   4   
  A
e|---------------------------------------------------------------------------|
B|---------------------------------------------------------------------------|
G|---------------------------------------------------------------------------|
D|7-7-7-7-7-7-7-7-6-6-6-6-6-6-6-6-11-11-11-11-11-11-11-11-6-6-6-6-6-6-6-6----|
A|0-0-0-0-0-0-0-0-0-0-0-0-0-0-0-0-0- 0- 0- 0- 0- 0- 0- 0- 0-0-0-0-0-0-0-0----|
E|---------------------------------------------------------------------------|
  1   2   3   4   1   2   3   4   1     2     3     4     1   2   3   4   

[Verse]
Pattern with A
e|---------------------------------------------------------------------------|
B|---------------------------------------------------------------------------|
G|---------------------------------------------------------------------------|
D|7-7-7-7-7-7-7-7-6-6-6-6-6-6-6-6-11-11-11-11-11-11-11-11-6-6-6-6-6-6-6-6----|
A|0-0-0-0-0-0-0-0-0-0-0-0-0-0-0-0-0- 0- 0- 0- 0- 0- 0- 0- 0-0-0-0-0-0-0-0----|
E|---------------------------------------------------------------------------|

Pattern with D
e|---------------------------------------------------------------------------|
B|---------------------------------------------------------------------------|
G|6-6-6-6-6-6-6-6-4-4-4-4-4-4-4-4-2-2-2-2-2-2-2-2-1-1-1-1-1-1-1-1------------|
D|0-0-0-0-0-0-0-0-0-0-0-0-0-0-0-0-0-0-0-0-0-0-0-0-0-0-0-0-0-0-0-0------------|
A|---------------------------------------------------------------------------|
E|---------------------------------------------------------------------------|

[Verse 1] 
A
Ek wil U lof verkondig Heer, want U het my gered en meer, 
D
U het my hulpgeroep gehoor, en my genees.  
A                                                       D
U het my uit die dood gered, toe dit te laat gelyk het, en, 

U het in goedheid my laat heers, oor elke vrees.

[Chorus] 
          A                                          
U het my rouklere uitgetrek, my feesklere aangetrek, 
 D
daarom sal ek sing vir U, sal nie stilbly nie. 
   A
My rouklere uitgetrek, my feesklere aangetrek, 
D                                                A
daarom sal ek hulde bring, daarom sal ek aanhou sing.


[Verse 2]
                           A                             D
Gister was weer ‘n donker dag, maar ek weet more sal ek lag, 

U plaas my op ‘n hoë berg, en hou my veilig. 
A                                                    D
Ek het benoud U hulp gevra, U het my deur die nag gedra, 

en U’t genade my betoon, O Here Heilig.


[Bridge]
E F#m D                   E F#m D
        Kan stof U loof,          U trou verkondig, 
E F#m D               E F#m D
        Here genade,          Ek sal U loof, 
E F#m D                 E F#m D
        U lof verkondig         ek was in rou, 
              E     F#m D
U’t my van vreugde laat dans. 


            
            
Suggest correction
Creating personal tab
Creating personal tab
You can edit any tab online and save it as your Personal.

You can edit, replace or remove any tab part or add personal notes – all changes will be seen only by you.

Personal tabs can be accessed anytime from any device, even offline.
Learn more »
Give kudos to tab author, rate the tab!
1 2 3 4 5
comments
print report bad tab
guest
You may want to rate the tab now too:
select rating
Wanna post a correction for this tab? Suggest correction