Oops, an error
Loading. Please wait.

Point Of Disgust chords

by Low
610 views 1 this week
no commentswrite comment
1 2 3 4 5
1 last vote to show rating
add to favorites
×
Save as Personal and add changes to this tab that will be seen only by you. Learn more ›
×
You can save this tab as Personal to edit and correct it or add notes. All changes will be seen only by you. Learn more »
launch autoscroll
font size
0
reset
transpose
0
reset
simplify chords
display chords
guitar tuner
edit
Autoscroll
slow
fast
+/-
esc
set tempo
stop
Strumming
There is no strumming pattern for this song yet. and get +5 IQ
-------------------------------------------------------------------------------
                             POINT OF DISGUST - Low
-------------------------------------------------------------------------------
Tabbed by: Kai O'Brien

This should be played with a capo on the 4th fret. I've arranged here for standard tuning with no capo.

Chord pattern played throughout song.

   D               Bm              D/A             Em9  
e|---2---2---2---2---2---2---2---2---2---2---2---2---2---2---2---2-|
B|---3---3---3---3---3---3---3---3---3---3---3---3---3---3---3---3-|
G|-----------------------------------------------------------------|
D|-0---0---0---0---------------------------------------------------|
A|-----------------2---2---2---2---0---0---0---0-------------------|
E|-------------------------------------------------0---0---0---0---|


[Verse 1]

D          Bm
Once I was lost
       D/A          Em9
To the point of dis-gust
  D         Bm
I had in my sight
        D/A
Lack of vision
        Em9
Lack of light
       D
I held hard
       Bm
I held fast
      D/A
Mercy me
            Em9
It'll never last


[Verse 2]

D           Bm
Then in the dust
        D/A
All the things
       Em9
We dis-cussed
     D             Bm
Were thrown to the wind
      D/A
So at last
      Em9
We be-gin
               D
'Cause we fall hard
        Bm
We fall fast
      D/A
Mercy me
            Em9
It'll never last

            
            
Suggest correction
Creating personal tab
Creating personal tab
You can edit any tab online and save it as your Personal.

You can edit, replace or remove any tab part or add personal notes – all changes will be seen only by you.

Personal tabs can be accessed anytime from any device, even offline.
Learn more »
Give kudos to tab author, rate the tab!
1 2 3 4 5
comments
print report bad tab
guest
You may want to rate the tab now too:
select rating
Wanna post a correction for this tab? Suggest correction