Oops, an error
Loading. Please wait.

Through The Trees tab

version 1
version 1

Whole song

Interactive

30,230 views 18 this week
4 commentsread comments
1 2 3 4 5
x 7
add to favorites
×
Save as Personal and add changes to this tab that will be seen only by you. Learn more ›
×
You can save this tab as Personal to edit and correct it or add notes. All changes will be seen only by you. Learn more »
launch autoscroll
font size
0
reset
how to read this tab
guitar tuner
edit
Autoscroll
slow
fast
+/-
esc
set tempo
stop
Author
-------------------------------------------------------------------------------
                                         Through the Trees - Low Shoulder 
-------------------------------------------------------------------------------
Tabbed by: SuperCano
Email:jcano09@yahoo.com

Tuning: Standard

Intro (play 2x):
e|--------------------|-----------------|-----------------|-------------------|
B|--------------------|-----------------|-----------------|-------------------|
G|----2-2-2-2-2-2-2-2-|-0-0-0-0-0-0-0-0-|-----------------|-0-0-0-0-2-2-2-2---|
D|----3-3-3-3-3-3-3-3-|-3-3-3-3-3-3-3-3-|-3-3-3-3-3-3-3-3-|-3-3-3-3-3-3-3-3---|
A|----3-3-3-3-3-3-3-3-|-3-3-3-3-3-3-3-3-|-3-3-3-3-3-3-3-3-|-3-3-3-3-3-3-3-3---|
E|--------------------|-----------------|-1-1-1-1-1-1-1-1-|-------------------|

e|----------------------------------------------------------------------------|
B|----------------------------------------------------------------------------|
G|----3-3-3-3-3-3-3-3-|-2-2-2-2-2-2-2-2-|-0-0-0-0-0-0-0-0-|-2-2-2-2-3-3-3-3---|
D|----0-0-0-0-0-0-0-0-|-0-0-0-0-0-0-0-0-|-0-0-0-0-0-0-0-0-|-0-0-0-0-0-0-0-0---|
A|----x-x-x-x-x-x-x-x-|-x-x-x-x-x-x-x-x-|-x-x-x-x-x-x-x-x-|-x-x-x-x-x-x-x-x---|
E|----3-3-3-3-3-3-3-3-|-3-3-3-3-3-3-3-3-|-3-3-3-3-3-3-3-3-|-3-3-3-3-3-3-3-3---|

then just play the chords in eighth notes

F
All alone in an empty room 
                                 Gm
Nothing left but the memories of when I had my best friend 
F
And I don't know how we ended up here 
                                    Gm
I don't know but it's never been so clear 

We made a mistake dear 
A#            F                
And I see the broken glass in front of me 
A#         F
I see your shadow hanging over me 
         Gm       A#  (palm mute and build up)           
And your face can see 

Chorus:     
            F
through the trees 
       A#               Dm                   A#
I will find you, I will heal the ruins left inside you 
                      F
Cause I'm still here, breathing oh 
                A#
I'm still here, breathing oh
                Dm
I'm still here, breathing oh 
              A#
Until I'm set free, go quiet through the trees 

F
I remember how we used to talk 
                                           Gm
About the places we were going when we grew up 
                           F
And all that we were gonna find 

And I remember watching our seeds grow 
                                         Gm
And how you cried when you saw the first leaf show 
                               F
The love was pouring from your eyes 
           A#      F
So can you see the branches hanging over me 
        A#      F
Can you see the love you left inside of me 
       FM            Am              
And my face, can you see 

Chorus:
            F
through the trees 
            A#          Dm                   A#
I will find you, I will heal the ruins left inside you 
                      F
Cause I'm still here, breathing oh 
               A#
I'm still here, breathing oh 
               Dm
I'm still here, breathing oh 
              A#
Until I'm set free, go quiet through the trees

Bridge:
Dm 
C
Gm
Cause you're not coming back
A#
And you're not coming back
Dm       C
No ooooo No ooooo
Gm
No, you're not coming back
A#
You're not coming back

Then 

"Take my breath..."
e|---------------------|-------1-------------|--------5---------------5-|-1---|
B|-------1-------------|---------------------|------------------------6-|-3---|
G|---------------------|-----3--------3--3---|-----7--------7---7-----7-|-3---|
D|-----3--------3--3---|---3-----------3-----|---7------------7-------7-|-3---|
A|---3-----------3-----|-3-------------------|-5-------------------5--5-|-1---|
E|-1-----------------1-|-------------------1-|------------------------5-|-1---|

Then
                      F
Cause I'm still here, breathing now 
               A#
I'm still here, breathing now 
               Dm
I'm still here, breathing now 
              A#
I'm still here,  

then chorus 3x

last chord is A#


| /  slide up
| \  slide down
| h  hammer-on
| p  pull-off
| ~  vibrato
| +  harmonic
| x  Mute note
===============================================================================

            
            
Suggest correction
Creating personal tab
Creating personal tab
You can edit any tab online and save it as your Personal.

You can edit, replace or remove any tab part or add personal notes – all changes will be seen only by you.

Personal tabs can be accessed anytime from any device, even offline.
Learn more »
comments
print report bad tab
4 comments total. Showing first comments.
0 reply
Tan010 10 Jan 03, 2010 04:55 PM

No, the last chord strummed is an F.

0 reply
sidewinderarcas 20 Apr 03, 2010 05:05 AM

Awesome tab but for the intro, if you want to play it like in the movie, I'm pretty sure this part;

e|----------------------------------------------------------------------------|
B|----------------------------------------------------------------------------|
G|----3-3-3-3-3-3-3-3-|-2-2-2-2-2-2-2-2-|-0-0-0-0-0-0-0-0-|-2-2-2-2-3-3-3-3---|
D|----0-0-0-0-0-0-0-0-|-0-0-0-0-0-0-0-0-|-0-0-0-0-0-0-0-0-|-0-0-0-0-0-0-0-0---|
A|----x-x-x-x-x-x-x-x-|-x-x-x-x-x-x-x-x-|-x-x-x-x-x-x-x-x-|-x-x-x-x-x-x-x-x---|
E|----3-3-3-3-3-3-3-3-|-3-3-3-3-3-3-3-3-|-3-3-3-3-3-3-3-3-|-3-3-3-3-3-3-3-3---|


Is played like this;

e|----------------------------------------------------------------------------|
B|----------------------------------------------------------------------------|
G|----3-3-3-3-3-3-3-3-|-2-2-2-2-2-2-2-2-|-3-3-3-3-3-3-3-3-|-0-0-0-0-2-2-2-2---|
D|----0-0-0-0-0-0-0-0-|-0-0-0-0-0-0-0-0-|-0-0-0-0-0-0-0-0-|-0-0-0-0-0-0-0-0---|
A|----x-x-x-x-x-x-x-x-|-x-x-x-x-x-x-x-x-|-x-x-x-x-x-x-x-x-|-x-x-x-x-x-x-x-x---|
E|----3-3-3-3-3-3-3-3-|-3-3-3-3-3-3-3-3-|-3-3-3-3-3-3-3-3-|-3-3-3-3-3-3-3-3---|


That's of course only for the movie version though.

+1 reply
mbhoch 10 May 13, 2010 09:16 PM

Awesome tab, it sounds great.. Thanks.

guest
You may want to rate the tab now too:
select rating
Wanna post a correction for this tab? Suggest correction