Oops, an error
Loading. Please wait.

Taping Songs Off The Radio tab

572 views 1 this week
3 commentsread comments
1 2 3 4 5
2 more votes to show rating
add to favorites
×
Save as Personal and add changes to this tab that will be seen only by you. Learn more ›
×
You can save this tab as Personal to edit and correct it or add notes. All changes will be seen only by you. Learn more »
launch autoscroll
font size
0
reset
how to read this tab
guitar tuner
edit
Autoscroll
slow
fast
+/-
esc
set tempo
stop
-------------------------------------------------------------------------------
              Taping Songs Off The Radio - Lower Than Atlantis
-------------------------------------------------------------------------------

This is my first tab it's only for the rhythm section/playing it on your own, I used the music video and 
this guy's cover (www.youtube.com/watch?v=z36kyTtF59w) to help me tab this. The verses and choruses differ
slightly from each other which is why I've tabbed them as Verse/Chorus 1 and Verse/Chorus 2.                        dfgdzb


Tuning:DADGBe

Intro:
e|-----------------------------------------------------------------|
B|-----------------------------------------------------------------|
G|-----------------------------------------------------------------|   x2
D|---4-4-4-4-4-4-4-4--0-0-0--2-2-2-4-4-4-4-4-4-4-4--0-0-0----------|
A|---4-4-4-4-4-4-4-4--0-0-0--2-2-2-4-4-4-4-4-4-4-4--0-0-0----------|
D|---4-4-4-4-4-4-4-4--0-0-0--2-2-2-4-4-4-4-4-4-4-4--0-0-0----------|
P.M. . . . . . . . .  . . .  . . . . . . . . . . .  . . . 

Then

e|----------------------------------------------------------------|
B|----------------------------------------------------------------|
G|--------------------------------------------------2-2-2---------|
D|---4-4-4-4-4-4-4-4--0-0-0--2-2-2-4-4-4-4-4-4-4-4--2-2-2---------|
A|---4-4-4-4-4-4-4-4--0-0-0--2-2-2-4-4-4-4-4-4-4-4--0-0-0---------|
D|---4-4-4-4-4-4-4-4--0-0-0--2-2-2-4-4-4-4-4-4-4-4----------------|

e|-----------------------------------------------------------------------|
B|-----------------------------------------------------------------------|
G|-----------------------------------------------------------------------|
D|---2-2-2-4-4-4-4-4-4-4-4--0-0-0--2-2-2-4-4-4-4-4-4-4-4--3b--3b---------|
A|---2-2-2-4-4-4-4-4-4-4-4--0-0-0--2-2-2-4-4-4-4-4-4-4-4--3b--3b---------|
D|---2-2-2-4-4-4-4-4-4-4-4--0-0-0--2-2-2-4-4-4-4-4-4-4-4--3b--3b---------|

         D|---2------------4---|
Playing: A|---4 instead of 4---| also sounds good here 
         D|---4------------4---|

Verse 1:
e|-----------------------------------------------------------------------|
B|-----------------------------------------------------------------------|
G|--------------------------------------------------2-2-2----------------|
D|---4-4-4-4-4-4-4-4--0-0-0--2-2-2-4-4-4-4-4-4-4-4--2-2-2----------------|
A|---4-4-4-4-4-4-4-4--0-0-0--2-2-2-4-4-4-4-4-4-4-4--0-0-0----------------|
D|---4-4-4-4-4-4-4-4--0-0-0--2-2-2-4-4-4-4-4-4-4-4-----------------------|
P.M. . . . . . . . .  . . .  . . . . . . . . . . .  . . . 

e|-----------------------------------------------------------------------|
B|-----------------------------------------------------------------------|
G|-----------------------------------------------------------------------|
D|---2-2-2-4-4-4-4-4-4-4-4--0-0-0--2-2-2-4-4-4-4-4-4-4-4--3b--3b---------|
A|---2-2-2-4-4-4-4-4-4-4-4--0-0-0--2-2-2-4-4-4-4-4-4-4-4--3b--3b---------|
D|---2-2-2-4-4-4-4-4-4-4-4--0-0-0--2-2-2-4-4-4-4-4-4-4-4--3b--3b---------|
P.M. . . . . . . . . . . .  . . .  . . . . . . . . . . .

e|-----------------------------------------------------------------------|
B|-----------------------------------------------------------------------|
G|-----------------------------------------------------------------------|
D|---4-4-4-4-4-4-4-4--0-0-0--2-2-2-4-4-4-4-4-4-4-4-----------------------|
A|---4-4-4-4-4-4-4-4--0-0-0--2-2-2-4-4-4-4-4-4-4-4-----------------------|
D|---4-4-4-4-4-4-4-4--0-0-0--2-2-2-4-4-4-4-4-4-4-4-----------------------|
P.M. . . . . . . . .  . . .  . . . . . . . . . . . 

e|-----------------------------------------------------------------------|
B|-----------------------------------------------------------------------|
G|-----------------------------------------------------------------------|
D|---2-2-2-4-4-4-4-4-4-4-4--0-0-0--2-2-2-4-4-4-4-4-4-4-4-----------------|
A|---2-2-2-4-4-4-4-4-4-4-4--0-0-0--2-2-2-4-4-4-4-4-4-4-4--2-3-2----------|
D|---2-2-2-4-4-4-4-4-4-4-4--0-0-0--2-2-2-4-4-4-4-4-4-4-4--------4-3-2-1-0|
P.M. . . . . . . . . . . .  . . .  . . . . . . . . . . .

Chorus 1:
e|--This is how I play it on my own to sound more like the record-----------------------------------------|
B|--------------------v                    v--------------------------------------------------------------|
G|--------4--4-4-4-4--6--6-6-6--6--6-6-4-4-4---------4--4-4-4-4-------------------------------------------|
D|-0--0-0-2--2-2-2-2--4--4-4-4--2--2-2-2-2-2--0--0-0-2--2-2-2-2--7--7-7-7--9--9--9-9-9-9---9

rer

            
            
Suggest correction
Creating personal tab
Creating personal tab
You can edit any tab online and save it as your Personal.

You can edit, replace or remove any tab part or add personal notes – all changes will be seen only by you.

Personal tabs can be accessed anytime from any device, even offline.
Learn more »
Give kudos to tab author, rate the tab!
1 2 3 4 5
comments
print report bad tab
3 comments total.
0 reply
JSteve-o 10 Jan 22, 2015 08:09 AM

Lack of accuracy. Chorus entirely wrong. Chords don't make any sense in this tuning, and sound horrible next to the recording - have tried it several times, and even in standard to see if that was the issue.

0 reply
RobDelicateLTA 32 Mar 10, 2015 01:29 PM, edited at 05:30 pm

Sorry it sucks man, just my first attempt, also UG wouldn't let me paste in the whole song for some reason as you can see I must have reached some sort of character limit by the time I reached the first chorus so that's not the whole thing. If you wanna help me out though and make another tab with all the improvements I'd love to see it, really wanna see more LTA tabs, they deserve it!

0 reply
JSteve-o 10 Feb 04, 2015 04:05 AM

Lack of accuracy. Lack of accuracy. Chorus entirely wrong. Chords don't make any sense in this tuning, and sound horrible next to the recording - have tried it several times, and even in standard to see if that was the issue.

guest
You may want to rate the tab now too:
select rating
Wanna post a correction for this tab? Suggest correction