Oops, an error
Loading. Please wait.

Tears Dont Matter Much Acoustic tab

version 1
version 1

Whole song

by Lucero
494 views 3 this week
no commentswrite comment
1 2 3 4 5
1 last vote to show rating
add to favorites
×
Save as Personal and add changes to this tab that will be seen only by you. Learn more ›
×
You can save this tab as Personal to edit and correct it or add notes. All changes will be seen only by you. Learn more »
launch autoscroll
font size
0
reset
how to read this tab
guitar tuner
edit
Autoscroll
slow
fast
+/-
esc
set tempo
stop
Author
Difficulty
[Intro]

E|--------0-----0-----------------------------------------------------------------------------------|
B|-----------------3-----3--------3-----3--1--------------3-----3--1--------------1--------3-----1--|
G|-----------------------------------------------2-----------------------2--------------------------|
D|--------2-----------2-----------0-----------0-----------0-----------0-----------3-----------3-----|
A|--3-----------3-----------------------------------------------------------------------------------|
E|--------------------------3-----------3-----------2-----------2-----------1-----------1-----------|


[Verse]
                    Matt  Bradley's got    the bro     ken   teeth
E|----------------------------------------------0----------------------------------------------------|
B|--------1-----------1-----0h1-----1--------1-----------3--1-----3--------------1--------3b4-----1--|
G|-----------------0----------------------------------------------------2----------------------------|
D|--------2-----------2----------0-----------0-----------0-----------0-----------3-------------3-----|
A|--3-----------3------------------------------------------------------------------------------------|
E|--------------------------3----------3-----------2-----------2-----------1-----------1-------------|
 
            He wears a jean jacket      with      a        bul     let     in    the        sleeve
E|---------------------------------------------------------0--------3--------0--------------------|
B|-----------1--0h1-----1-----0h1--------1--------1--------------------------------3-----------1--|
G|------------------------------------------------------------------------------------------------|
D|--------2-------------2-------------0-----------------0-----------------0--------------0--------|
A|--3-----------3---------------------------------------------------------------------------------|
E|----------------------------3-------------3-----------------2-----------------2-----------------|


           He's just a   nother     Southern     boy   who dreams       of nights in N     Y     C
E|-----------------------0-----0-----0-----0--------------------------------3-----0-----------------|
B|--------------1--3-----------------------------3--------1--1-----------1-----------3-----1--------|
G|-----------2-----------------------------------------------------------------------------------2--|
D|--------3-----------3-----------2-----------2-----------0-----------0-----------0-----------0-----|
A|--------------------------3-----------3-----------------------------------------------------------|
E|--1-----------1-----------------------------------3-----------3-----------2-----------2-----------|


               And I       sing     along                       I       sing along
E|--------------------------0-----------------------------------0--------------------------------|
B|--------------1--3--------------3--1-----3-----------------3-----------3--1--------1-----------|
G|-----------------------------------------------------------------------------2-----------2-----|
D|--------3--------------3--------2-----------2--------0--------0-----------0-----------0--------|
A|-----------------------------3--------3--------------------------------------------------------|
E|--1-----------1-----------------------------------3-----3-----------2-----------2-----------1--|


                   My 
E|-----------------0--|
B|-----1--------------|
G|--------------2-----|
D|-----3-----------3--|
A|--------------------|
E|-----------1--------|


{Chorus}
   tears don't matter much      don't matter much                                           My
E|--0-----0-----0----------------0-----0----------------------------------------------------0--|
B|-----------------3--1h3-----------------3--1h3--------3--------1--------------1--------------|
G|---------------------------------------------------------------------2-----------------2-----|
D|--------2-----------2----------0-----------0----------0-----------0-----------3-----------3--| X2
A|--3-----------3------------------------------------------------------------------------------|
E|-------------------------3-----------3----------2-----------2-----------1-----------1--------|




 {Bridge}      When the boys               they sing              their songs
E|-----------------------0-----------------0----------------------------------------------------------|
B|--------1-----1--3-----------------------------3--------------------0h1-----------1--------------1--|
G|-------------------------------------------------------------------------------------------2--------|
D|--------3-----------3-----------2-----------2-----------0-----------0-------------3-----------3-----|
A|--------------------------0-----------0-------------------------------------------------------------|
E|--1-----------1-----------------------------------3-----------3-------------1-----------1-----------|


               And the kids                they   sing              along
E|-----------------------0-----------------1/3-----3----------------------------------------------|
B|--------1-----1--3-----------------------1/3-----3-----------------0h1--------1--------------1--|
G|---------------------------------------------------------------------------------------2--------|
D|--------3-----------3-----------2----------------------0-----------0----------3-----------3-----|
A|--------------------------0-----------0---------------------------------------------------------|
E|--1-----------1----------------------------------3-----------3----------1-----------1-----------|


            I'm just a   nother      Southern   boy    who dreams       of nights in N     Y     C
E|-----------------------0-----0-----0-----0--------------------------------3-----0-----------------|
B|--------1-----1--3-----------------------------3--------1--1-----------1-----------3-----1-----1--|
G|-----------2--------------------------------------------------------------------------------------|
D|--------3-----------3-----------2-----------2-----------0-----------0-----------3-----------3-----|
A|--------------------------0-----------0-----------------------------------------------------------|
E|--1-----------1-----------------------------------3-----------3-----------1-----------1-----------|


                And I   sing       along                              I    sing along
E|-----------------------0--------------------------------------------0--------------------------|
B|--------1-----1--3--------------3--1--3--------------------------1--------3--1--------------1--|
G|--------------------------------------------------------------------------------2-----2--------|
D|--------3-----------3-----------2-----------2-----------0-----------0--------3-----------3-----|
A|--------------------------0-----------0--------------------------------------------------------|
E|--1-----------1-----------------------------------3-----------3--------1-----------1-----------|

E|----------------------------|
B|--------1--------3b4-----1--|
G|----------------------------|
D|--------3-------------3-----|
A|----------------------------|
E|--1-----------1-------------|



************************************

| h  Hammer-on
| b  Bend
| /  Slide up

************************************

            
            
Suggest correction
Creating personal tab
Creating personal tab
You can edit any tab online and save it as your Personal.

You can edit, replace or remove any tab part or add personal notes – all changes will be seen only by you.

Personal tabs can be accessed anytime from any device, even offline.
Learn more »
Give kudos to tab author, rate the tab!
1 2 3 4 5
comments
print report bad tab
guest
You may want to rate the tab now too:
select rating
Wanna post a correction for this tab? Suggest correction